Oops, an error
Loading. Please wait.

Again Tab

version 1
version 1

Solo

Whole song

Interactive

17,695 views 12 this week
2 commentsread comments
1 2 3 4 5
x 5
add to favorites
×
Save as Personal and add changes to this tab that will be seen only by you. Learn more ›
×
You can save this tab as Personal to edit and correct it or add notes. All changes will be seen only by you. Learn more »
save as personal
new!
launch autoscroll
font size
0
reset
how to read this tab
guitar tuner
Autoscroll
slow
fast
+/-
esc
set tempo
stop
Tuning
E A D G B E
Again Solo
Lenny Kravitz

by Brian S.

e|--------------------------------------------------|
B|--------------12b~~~~~~---12b-12b~--12b--12v~~~~--|
G|--------------------------------------------------|
D|---/14v-------------------------------------------|
A|--------------------------------------------------|
E|--------------------------------------------------|
..forever...

e|-------12b~~~~~~~---r12--10--9--10--9--12-------------|
B|--10--------------------------------------12b-r-12p10-|
G|------------------------------------------------------|
D|------------------------------------------------------|
A|------------------------------------------------------|
E|------------------------------------------------------|


e|-----------\--------------~~~~--------9--10--12--12/14--12~~---|
B|-12p10h12p10h12p10------10--9--10--12--------------------------|
G|---------------------9-----------------------------------------|
D|---------------------------------------------------------------|
A|---------------------------------------------------------------|
E|---------------------------------------------------------------|


e|---17b~~~-r17~~~~~----19b~~-(19b)~~19p17-r19--19--17~~~--------|  Parenthesis means a light pick attack 
B|---------------------------------------------------------------|     for the second bend on 19
G|---------------------------------------------------------------|
D|---------------------------------------------------------------|
A|---------------------------------------------------------------|
E|---------------------------------------------------------------|


e|--21--22~--19b--19--17--19--17~~~~~----------------|
B|---------------------------------------------------|
G|-------------------------------------14------------|
D|-------------------------------------14h16p14------|
A|----------------------------------16----------16---|
E|---------------------------------------------------|
Suggest correction
comments
print report bad tab
2 comments total.
0 reply
HurricaneSG 51 Mar 30, 2006 03:48 AM

i have no idea what "dive bomb" is

0 reply
sie7e 16 Apr 25, 2010 07:39 PM

a dive bomb is the sound you create with the whammy bar

guest
Wanna post a correction for this tab? Suggest correction