Oops, an error
Loading. Please wait.

Again Tab

version 3
version 3

Whole song

Interactive

3,731 views 6 this week
no commentswrite comment
1 2 3 4 5
please rate
add to favorites
launch autoscroll
font size
0
reset
how to read this tab
guitar tuner
Autoscroll
slow
fast
+/-
esc
set tempo
stop
Help us to improve Ultimate-Guitar.com Take our survey!
×
Author
hey my name is chris and this is the real way to play this song GOOD LUCK its a fun song 
can get some PUTang if u look at a girl str8 in the eys and sing it to
them lol DUDEIPLAYAGUITAR@NETSCAPE.net
   A                     F#m                   E
e----------0---------------------0----------------------0-------------------|
B------0-------0h2p0-0-------0-------0h2p0-0--------0-------0h2p0-0---------|
G----2---2---2---------2---2---2---2---------2----2---2---2---------2~------|
D---------------------------------------------------------------------------|
A--0------------------------------------------------------------------------|
E------------------------2----------------------0---------------------------|
   D
e--------0h2p0-0-----------------|
B----0-----------0h2p0-0---------|
G--2---2-----------------2-------|
D--------------------------------|
A--------------------------------|
E--------------------------------|

Verse:

Guitar 1: slightly distorted
   D                  E   F#m
e---------------------------------------------------------------------------|
B--7------------------9---11----11-11-11------------------------------------|
G--7------------------9---11----11-11-11------------------------------------|
D--5------------------7---9-----9--9--9-------------------------------------|
A---------------------------------------------------------------------------|
E---------------------------------------------------------------------------|

Guitar 2: clean tone
   D                        E     F#m
e-----------------------------------------------------------------------|
B-----------------------------------------------------------------------|
G--2-2-2-2-2-2-2-2----------1-1-1/2--2--2-2-----------------------------|
D--0-0-0-0-0-0-0-0----------0-0-0/4--4--4-4-----------------------------|
A-----------------------------------------------------------------------|
E-----------------------------------------------------------------------|
solo
e||-------------------------------12/14-12-10-9-10-12--12/14-12-10h12p10--|
B||-----------12/14-14-14-12--10------------------------------------------|
G||----9-9-9--------------------------------------------------------------|
D||-----------------------------------------------------------------------|
A||-----------------------------------------------------------------------|
E||-----------------------------------------------------------------------|

e||--------------9-10-12-12-12/14-12-17/19-17-21b-21-19-17-19-17----------|
B||--------10-12----------------------------------------------------------|
G||---9-11----------------------------------------------------------------|
D||-----------------------------------------------------------------------|
A||-----------------------------------------------------------------------|
E||-----------------------------------------------------------------------|

e||--21-22-21-19-17-19-17--------------------------------------------|
B||------------------------------------------------------------------|
G||------------------------7h8p7--7h8p7------------------------------|
D||------------------------------------------------------------------|
A||------------------------------------------------------------------|
E||------------------------------------------------------------------|

dude comments please
Suggest correction
What's this?
You can suggest a correction to this tab. Community and Mods will review your correction and vote to approve or reject it.
comments
We did not receive enough feedback on this tab! Please rate:
print report bad tab
1 2 3 4 5
guest
You may want to rate the tab now too:
select rating
Please do not post tabs as comments. Select "correction" instead!