Oops, an error
Loading. Please wait.

Always On The Run Tab

version 3
version 3

Intro

Whole song

Interactive

79,747 views 45 this week
7 commentsread comments
1 2 3 4 5
x 34
add to favorites
launch autoscroll
font size
0
reset
how to read this tab
guitar tuner
backing track
0:00
0:00
×
Best way to learn
"Always On The Run"
Autoscroll
slow
fast
+/-
esc
set tempo
stop
Author
Difficulty
  follow
intermediate
               "Always on the run" by Lenny Kravitz
/=slide
h=hamer on 
p=pull of

Intro(this is one of the only correct tabs you can find)
                                                          
e ----|"---------------------------|-----------------repeat---------"|
B ----|----------------------------|---------------------------------|
G ----|----------------------------|---------------------------------|
D 12/-|--------------------5p0-----|---------------------------0h2---|
A 12/-|-----7---5p4---5----------7-|----7---5p4---5--5-5p2-----------|
E 12/-|---0---------0-----0----0---|--0---------0----------3p0-------|
  

Any suggestions mail me, soon i'll tab the entire song
Suggest correction
comments
print report bad tab
7 comments total. Showing first comments.
+3 reply
chillern 41 Aug 14, 2006 05:43 PM

Perfect, except for the fact that the e-string should be palm muted

+1 reply
chillern 41 Aug 14, 2006 05:45 PM

And the

e ----|"---------------------------|
B ----|----------------------------|
G ----|----------------------------|
D 12/-|--------------------5p0-----|
A 12/-|-----7---5p4---5----------7~|
E 12/-|---0---------0-----0----0---|

The last note should be vibrato

+2 reply
slash4lyf 112 Sep 28, 2006 03:05 AM

fkn awesome mate tab to hole song
5*

guest
You may want to rate the tab now too:
select rating
Wanna post a correction for this tab? Suggest correction