Oops, an error
Loading. Please wait.

Always On The Run Tab

version 1
version 1

Intro

Solo

Whole song

Interactive

Video

39,156 views 60 this week
no commentswrite comment
1 2 3 4 5
excellent!
x 4
add to favorites
launch autoscroll
font size
0
reset
how to read this tab
guitar tuner
Tab Pro tools
  • play this tab
  • loop segment
  • change instrument
  • show fretboard
  • metronome
×
Best way to learn
"Always On The Run"
Autoscroll
slow
fast
+/-
esc
set tempo
stop
Contributor
Difficulty
intermediate
Always On The Run  ----  Lenny Kravitz and Slash
Slash's Solo
Solo should be improvised with given scales. Use as a rough outline.
This trabs dedicated to dawa n himanshu. rock it

Tablature 
----------------
L - tied note
h - hammer on
p - pull off
b - bend
br - bendRelease
pb - preBend
pbr - preBendRelease
brb - bendReleaseBend
S - shift slide
s - legato slide
S - slap




     Les Paul, saturated overdrive, cut some                      
  
-------------------|-----------------------|
-------------------|-----------------------|
-------------------|-----------------------|
-------------------|-----------------------|
-------------------|-----------------------|
-------------------|----------------19S----|


  
  
-------------------------------------------------------|
-------------------------------------------------------|
-----------------------------------------5p-L-0-7p-L-0-|
---------------------------5p-L-0-7p-L-5---------------|
---------------4--5--7-L-7-----------------------------|
--5----------------------------------------------------|


 
-----------------------------------------------|
---------------------------------------------0-|
--7b-L-5-5-7-5p-0-5p-0-7-5-5-0-7S-9--9-9S-12-0-|
-----------------------------------------------|
-----------------------------------------------|
-----------------------------------------------|


  
---------------------------------------------------|
--15b------15b--L--15b-----------------------------|
-----------------------x-15b--15b-15-14--14br-L-12-|
---------------------------------------------------|
---------------------------------------------------|
---------------------------------------------------|


 
------------------------------------------------------------------|
--------15---------------12-------------------------------------0-|
--14b-L----14br-L-12-14b----14br-L-12----14-L----12-L-14-12-------|
--------------------------------------14------14-------------14---|
------------------------------------------------------------------|
------------------------------------------------------------------|


------------------------------------------------|
-------------------15--------------12-----12-12-|
--14b--14b--L--14b----11--------------14b-------|
-------------------------15--0h-13--------------|
------------------------------------------------|
------------------------------------------------|

 
--------------------------------------------12----|
--------17b--17-16-17-16-17-17b-------5S-12----12-|
--------------------------------------------------|
--14-14-------------------------------------------|
--------------------------------------------------|
--------------------------------------------------|


   
--15b-----L-L-12--------15b-L-L-12--------15b-L-L-12--------15-L-16-12--------12
-----------------15p-12------------15p-12------------15p-12------------15p-12---
--------------------------------------------------------------------------------
--------------------------------------------------------------------------------
--------------------------------------------------------------------------------
--------------------------------------------------------------------------------


                              
---------------------------------------12---------------------------------------
--15p-14p-12----12h-15p-12----12----12----15p-12--------------------------------
-------------15------------15----15--------------14br-L-12----12----------------
-----------------------------------------------------------14----14p-12---------
------------------------------------------------------------------------13br-L-1
--------------------------------------------------------------------------------


       
--------------------------|-------------------|-------------------|
--------------------------|-------------------|-------------------|
--------12-12S------------|-------------------|-------------------|
--------12--0-------------|-------------------|-------------------|
--------------------------|-------------------|-------------------|
--12----------------------|-------------------|-------------------|

Crank it baby
comments
print report bad tab
I want to post or [tab]
guest
You may want to rate the tab now too:
select rating
Please do not post tabs as comments. Select "correction" instead!