Oops, an error
Loading. Please wait.

Are You Gonna Go My Way Chords

version 1
version 1

Whole song

Video

36,897 views 66 this week
1 commentread comment
1 2 3 4 5
not so good
x 9
add to favorites
launch autoscroll
font size
0
reset
transpose
0
reset
display chords
guitar tuner
Tab Pro tools
  • play this tab
  • loop segment
  • change instrument
  • show fretboard
  • metronome
×
Best way to learn
"Are You Gonna Go My Way"
Autoscroll
slow
fast
+/-
esc
set tempo
stop
Artist: Lenny KravitzTitle: Are You Gonna Go My WayFrom: 
dj_edd@hotmail.comb=bend to/=slide up   
down~=with vibratoh=hammer onp=pull 
X2
A|----------------------------|------------------------------|
E|--------------0-----------0-|--------------0---------------|

VERSES:
play this a bunch of times:

e|----------------------------|                  
B|----------------------------|                 
                 
D|-----------2-----0---2------| 
A|----------------------------|                
E|--------------0-----------0-|                
...until this...

e|------------------------------|                   
e|------------------------------|
B|------------------------------|                   
B|------------------------------|
G|-5b7b5--3---------------------|                   

 X3  then this... 
D|------------------------------|
A|------------------------------|                   
A|------------------------------|
E|--------------3-------------3-|                   
E|------------------------------|with thumb______|go back to playing first part of 

verseCHORUS:

e|--0---0--0-----------------------|----0----|--------------|--------------|-0---0--0--------0-|
B|--3---3--3--------------------2--|-2--2----|-/9--9--7--9--|--9--9--12--9-|-3---3--3--------2-|
G|--4---4--4--------------------2--|-2--2----|-/9--9--7--9--|--9--9--12--9-|-4---4--4--------2-|
D|---------------------------------|---------|--------------|--------------|-----------------2-|
A|---------------------------------|---------|--------------|--------------|-----------------0-|
X4 same as introInterlude (with Flanger) play 4 times:
e|-------------------------------|-------------------------|
B|--9-----X---7-------X---X---7--|------X---5-----7---5----|
G|--9-----X---7-------X---X---7--|------X---6-----7---6----|
D|--9-----X---7-------X---X---7--|------X---7-----7---7----|
A|-------------------------------|-------------------------|       
E|-------------------------------|-------------------------|

Solo:

e|-------------------------|-------------------|--------------------------------------|
B|-------------------------|-------------------|--------------------------------------|
G|----------------12h14-12-|-------------------|--------------------------------------|
D|--12-14~~~~~~~-----------|-------14p12----12-|--14----------------------------------|
A|-------------------------|-------------14----|------14\12------10-----11------------|
       
Chorus:

e|--0-------------|---0--------------|----0-----------0-------------------|
e|--3-------------|---2--------------|----3-----------2-------------------|
e|--4-------------|---2--------------|----4-----------2-------------------|
e|----------------|------------------|------------------------------------|
e|----------------|------------------|------------------------------------|
e|----------------|------------------|------------------------------------|
/--- Toggle switch on & offe
 |--------------------|-------------------|----0-----------0----------------|-----------|
e|--/9---9--7---9-----|---9---9--12--9----|----3-----------2----------------|-----------|
e|--/9---9--7---9-----|---9---9--12--9----|----4-----------2----------------|-----------|
e|--------------------|-------------------|----------------2----------------|-----------|
e|--------------------|-------------------|----------------0----------------|-----------|
e|--------------------|-------------------|---------------------------------|-5\--------|
comments
print report bad tab
1 comment total.
+1 reply
jdrk10 wrote on January 20 2009, 05:49 pm

first of all, what the hell is this???? i can't read it, it is jumbled junk!

I want to post or [tab]
guest
You may want to rate the tab now too:
select rating
Please do not post tabs as comments. Select "correction" instead!