Oops, an error
Loading. Please wait.

Are You Gonna Go My Way Bass Tab

version 2
version 2

Whole song

Interactive

19,827 views 36 this week
no commentswrite comment
1 2 3 4 5
accurate
x 6
add to favorites
launch autoscroll
font size
0
reset
guitar tuner
Autoscroll
slow
fast
+/-
esc
set tempo
stop
Help us to improve Ultimate-Guitar.com Take our survey!
×
ARE YOU GONNA GO MY WAY (Bassline)
As recorded by Lenny Kravitz
(From the 2000 Album LENNY KRAVITZ GREATEST HITS)


 Words by Lenny Kravitz Music by Lenny Kravitz and Craig Ross

 

Gtr I (E A D G) - 'Standard'


 Intro
  Moderate Rock Q=128
 4/4
  Gtr I
  Wx6          Q  E  E  E E Q    H     a  S  S  E  S  E  +S
|------------|-----------------|------------------------------|
|------------|---------14------|------------14-14-14-14-(14)-|
|------------|------12---------|------12h14-------------------|
|------------|-----------------|------------------------------|


  q  E. S E Q  E   q  E. S E E E E   q  E. S E Q  E
|----------------|-----------------|----------------|
|----------------|-----------------|----------------|
|-7--7----5-7--5-|-7--7----5-7-5---|-7--7----5-7--5-|
|-------7--------|-------7-------7-|-------7--------|


  E. S E. S E E S S E   q  E. S E E E E   q  E. S E E E E
|---------------------|-----------------|------------------|
|---------------------|-----------------|------------------|
|-7----7------5-7p5---|-7--7----5-7-5---|-7--7----5-7-5----|
|----7----7---------7-|-------7-------7-|-------7-------7--|


                                     1st Verse
  q  E. S E Q  E   q  E. S E E E E    q  q  q  E E
|----------------|-----------------||--------------|
|----------------|-----------------||--------------|
|-7--7----5-7----|-7--7----5-7-5---||-7-----7----5-|
|-------7--------|-------7-------7-||----0---------|


  q  q  q  E E   q  q  q  E E   q  E E E E E E
|--------------|--------------|----------------|
|--------------|--------------|----------------|
|-7--7--7--7-5-|-7--7--7--7-5-|-7--7-------7-5-|
|--------------|--------------|------7---7-----|


  q  q  q  E E   q  q  q  E E   q  q  q  E E
|--------------|--------------|--------------|
|--------------|--------------|--------------|
|-7--7--7--7-5-|-7--7--7--7-5-|-7--7--7--7-5-|
|--------------|--------------|--------------|


  q  q  q  E S S   q  q  q  E E   q  q  e E E E
|----------------|--------------|----------------|
|----------------|--------------|---------3-5-3--|
|-7--7--7--7-----|--------------|----------------|
|------------7s5-|-3--3--3----1-|-3--3--3--------|


  q  q  q  E E   q  e. S +E  E E +E     q  q  E E E E
|--------------|----------------------|---------------|
|-5------------|----------------------|---------------|
|--------------|----------------------|-7--7--7-5-7-5-|
|----3--3--3-1-|-3--3--1-(1)-0-1-(1)/-|---------------|


  q  q  E E E E   q  q  E E E E   q  q  E E E E
|---------------|---------------|---------------|
|---------------|---------------|---------------|
|-7--7--7-5-7-5-|-7--7----5-7-5-|-7--7--7-5-7---|
|---------------|---------------|-------------0-|


  E E E E E E E E   E E E E E E Q    q  E E E E E E
|-----------------|----------------|----------------|
|-----5-----------|----------------|----------------|
|-----------------|----------------|-7--7-7-7-5-7-5-|
|-3-3---3-3-3-3-2-|-2-2-2-2-2-2-2--|----------------|


  e. S E E E E E E   E E E E E E E E   +W
|------------------|-----------------|--------|
|------------------|-----------------|--------|
|-7--7-7---5-7-5---|-----------------|--------|
|--------7-------7-|-3-3-3-3-3-3---2-|-(2)----|


  Wx3          H     S  S  S  S  S  S  E   q  E. S E Q  E
|------------|---------------------------|----------------|
|------------|------12-12-12-12-12-12-12-|----------------|
|------------|---------------------------|-7--7----5-7----|
|------------|---------------------------|-------7--------|


  q  E. S E E E E   q  E. S E Q  E   q  E. S E E E E
|-----------------|----------------|-----------------||
|-----------------|----------------|-----------------||
|-7--7----5-7-5-7-|-7--7----5-7----|-7--7----5-7-5---||
|-------7---------|-------7--------|-------7-------7-||


 2nd Verse
  q  q  E E E E   q  q  E E E E   q  q  E E E E
|---------------|---------------|---------------|
|---------------|---------------|---------------|
|-7---------5---|-7--7------5---|-7-----7---5---|
|----0----7---7-|---------7---7-|----0----7---7-|


  Q  E E E E E E   q  q  E E E E   q  q  E E E E
|----------------|---------------|---------------|
|----------------|---------------|---------------|
|-7--7-5-7-5-7-5-|-7--7------5---|-7-----7---5---|
|----------------|---------7---7-|----0----7---7-|


  q  q  E E E E   q  q  E E E S S   q  q  E E E E
|---------------|-----------------|----------------|
|---------------|-----------------|----------------|
|-7--7--7---5---|-7--7--7---5-----|----------------|
|---------7---7-|---------7---7s5-|-3--3----3---1--|


  q  q  E E E E   q  e. S +E  E E E   q  q  q  E E
|---------------|-------------------|--------------|
|---------5-3-5-|-------------------|--------------|
|---------------|-------------------|------------5-|
|-3--3----------|-3--3--3-(3)---3-1-|-3--3--3--3---|


  q  q  q  E E   q  q  E E E E   q  q  q  E E
|--------------|---------------|--------------|
|--------------|---------------|--------------|
|-7--7--7--7-5-|-7--7----5-7-5-|-7--7--7--7-5-|
|--------------|---------------|--------------|


  q  q  q  E +E     E E E E E E E E   E E E E E E S E.
|-----------------|-----------------|------------------|
|-----------------|-----5-----------|------------------|
|-7--7--7--7-(7)--|-----------------|---------2-3-4s5--|
|-----------------|---3---3-3-3-3-3-|-2-2-2-2----------|


  q  e E E E E E   q  e. S E E E E   E E E E E E E E
|----------------|-----------------|-----------------|
|----------------|-----------------|-----------------|
|-7--7---5-7-5---|-7--7----5-7-7---|-----5-5-5-4-3---|
|------7-------7-|-------7-------0-|-3-3-------------|


  Wx8           E  E  E  E  +E  E E  E   E Q.   +E  E E E
|------------|-13-11-13-11-(11)-9---11-|---9----(9)-------||
|------------|-------------------------|------------------||
|------------|-------------------------|------------5-7---||
|------------|-------------------------|----------------7-||


 Guitar Solo
  E E E E +E  E E E   +E  E E E +E  E E E   E E E E +E  E E E
|-------------------|---------------------|-------------------|
|-------------5-6-7-|-(7)-5-6-7-(7)-------|-------------2-3-4-|
|-7---7-5-(5)-------|---------------4-5-6-|-7---7-5-(5)-------|
|---7---------------|---------------------|---7---------------|


  +E  E E E +E  E E E   E E E E +E  E E E   +E  E E E +E  E E E
|---------------------|-------------------|---------------------|
|-(4)-4-5-7-(7)-------|-------------------|---------------------|
|---------------0-5-6-|-7---7-5-(5)-------|-----3-4-5-(5)-0-5-6-|
|---------------------|---7---------3-4-5-|-(5)-----------------|


  E E E E +E  E E E   +E  E E E +E  E E E   E E E E +E  E E E
|-------------------|---------------------|-------------------|
|-------------2-3-4-|-(4)-----------------|-------------2-3-4-|
|-7---7-5-(5)-------|-----2-3-4-(4)-4-5-6-|-7---7-5-(5)-------|
|---7---------------|---------------------|---7---------------|


  +E  E E E E E E E   E E E E +E  E E E   +E  E E E E E E E
|-------------------|-------------------|-------------------|
|-(4)-5-6-7---------|-------------------|-------------------|
|-----------4-4-5-6-|---7-6-5-(5)-------|-----2-3-4-2-4-5-6-|
|-------------------|-7-----------2-3-5-|-(5)---------------|


  E E E E +E  E E E   +E  E E E +E  E E E   E E E E +E  E E E
|-------------------|-----4-5-7-(7)-------|-------------------|
|-------------4-5-7-|-(7)-----------7-----|-------------------|
|-7---7-5-(5)-------|-----------------5-6-|-7---7-5-(5)-------|
|---7---------------|---------------------|---7---------5-7-5-|


  +W           +W             q  e. S E E q
|------------|------------||-----------------|
|------------|------------||o----------------|
|------------|------------||o-7--7----5-7-7--|
|-(5)--------|-(5)--------||--------7--------|


  q  e E E E E E   q  E. S E Q  E   q  E. S E E E E
|----------------|----------------|------------------||
|----------------|----------------|-----------------o||
|-7--7---5-7-5---|-7--7----5-7----|-7--7----5-7-5---o||
|------7-------7-|-------7------7-|-------7-------7--||


                   2/4       4/4
  E E E E E E E E   E E E E   E E E E E E E E
|-----------------|---------|-----------------|
|-----------------|---------|-----------------|
|-----------------|---------|-----------------|
|-3-3-3-3-3-3-3-3-|-2-2-2-2-|-3-3-3-3-3-3-3-2-|


  +H     E E E  E   q  e E E E S E.   q  e. S E E E S S
|-----------------|-----------------|--------------------|
|-----------------|-----------------|--------------------|
|-----------------|-7--7---5-7-5----|-7--7----5-7-5------|
|-(2)----0-2-3/---|------7-------7--|-------7-------7s5--|


  E E E E E E E E   +W           +W
|-----------------|------------|--------*|
|-----------------|------------|--------*|
|-----------------|------------|--------*|
|-3-3-3-3-3-3-3-2-|-(2)--------|-(2)----*|
Suggest correction
comments
print report bad tab
guest
You may want to rate the tab now too:
select rating
Please do not post tabs as comments. Select "correction" instead!