Oops, an error
Loading. Please wait.

Are You Gonna Go My Way Tab

version 3
version 3

Whole song

Interactive

Video

265,830 views 153 this week
10 commentsread comments
1 2 3 4 5
excellent!
x 49
add to favorites
launch autoscroll
font size
0
reset
how to read this tab
guitar tuner
Autoscroll
slow
fast
+/-
esc
set tempo
stop
Help us to improve Ultimate-Guitar.com Take our survey!
×
Author
TheMutts 13,644
ARE YOU GONNA GO MY WAY
                          As recorded by Lenny Kravitz
                 (From the 1993 Album ARE YOU GONNA GO MY WAY ?)

Words and Music by Lenny Kravitz & Craig Ross
Transcribed by www.mikesguitarsite.co.uk

Gtr I (E A D G B E) - 'Craig Ross - Rhythm w/dist'
Gtr II (E A D G B E) - 'Lenny Kravitz - Rhythm / Lead w/dist'

[Intro]

   Q=130
  4/4
   Gtr I
e|---------------------------|------------------------x-3-|
B|---------------------------|------------------------x-3-|
G|-2b4==(2)r(2)p0------------|-2b4==(2)r(2)p0-------------|
D|----------------2---0-2----|----------------2---0-2-----|
A|---------------------------|----------------------------|
E|------------------0------0-|------------------0---------|


e|---------------------------|------------------------x-3---|
B|---------------------------|------------------------x-3---|
G|-2b4==(2)r(2)p0------------|-2b4==(2)r(2)p0---------------|
D|----------------2---0-2----|----------------2---0-2-------|
A|---------------------------|------------------------------|
E|------------------0------0-|------------------0-----------|

   Gtr II
                           PM|      ~~   PM                           PM    ~~
e|------------------------------------------|---------------------------------------|
B|------------------------------------------|---------------------------------------|
G|------14pb15r(14)-12----------12----------|-14b16==(14)r(14)p12-------------------|
D|------------------------14----12-14--(12)-|---------------------14----12-14-----x-|
A|---------------------------14-------------|------------------------14-------------|
E|------------------------------------------|---------------------------------------|
|
 | Gtr I
e|------------------------------------------|---------------------------------x-3---|
B|------------------------------------------|---------------------------------x-3---|
G|-2b4==(2)r========(2)p0-------------------|--2b4====(2)r=(2)p=0-------------------|
D|-------------------------2-----0--2-------|----------------------2-----0--2-------|
A|------------------------------------------|---------------------------------------|
E|----------------------------0----------0--|-------------------------0-------------|


                           PM|      ~~   PM                           PM    ~~     PM
e|------------------------------------------|----------------------------------------|
B|------------------------------------------|----------------------------------------|
G|------14pb15r(14)-12----------------------|-14b16==(14)r(14)p12--------------------|
D|------------------------14----12-14--(12)-|---------------------14----12-14-----12-|
A|---------------------------14-------------|------------------------14--------------|
E|------------------------------------------|----------------------------------------|
|
e|------------------------------------------|---------------------------------x-3----|
B|------------------------------------------|---------------------------------x-3----|
G|-2b4==(2)r========(2)p0-------------------|--2b4====(2)r=(2)p=0--------------------|
D|-------------------------2-----0--2-------|----------------------2-----0--2--------|
A|------------------------------------------|----------------------------------------|
E|----------------------------0----------0--|-------------------------0--------------|


                        PM|      ~~  PM                          PM    ~~
e|-------------------------------------|---------------------------------------|
B|-------------------------------------|---------------------------------------|
G|-14b16==(14)r(14)p12-------12--------|-14b16==(14)r(14)p12-------------------|
D|---------------------14----12-14--12-|---------------------14----12-14-----x-|
A|------------------------14-----------|------------------------14-------------|
E|-------------------------------------|---------------------------------------|
|
e|-------------------------------------|---------------------------------x-3---|
B|-------------------------------------|---------------------------------x-3---|
G|--2b4====(2)r=(2)p=0-----------------|--2b4====(2)r=(2)p=0-------------------|
D|----------------------2-----0--2-----|----------------------2-----0--2-------|
A|-------------------------------------|---------------------------------------|
E|-------------------------0---------0-|-------------------------0-------------|


                           PM    ~~                             PM    ~~
e|------------------------------------|----------------------------------------|
B|------------------------------------|----------------------------------------|
G|-14b16==(14)r(14)p12----------------|-14b16==(14)r(14)p12--------------------|
D|---------------------14----12-14--x-|---------------------14----12-14--------|
A|------------------------14----------|------------------------14--------------|
E|------------------------------------|----------------------------------------|
|
e|------------------------------------|---------------------------------x-3----|
B|------------------------------------|---------------------------------x-3----|
G|--2b4====(2)r=(2)p=0----------------|--2b4====(2)r=(2)p=0--------------------|
D|----------------------2-----0--2----|----------------------2-----0--2--------|
A|------------------------------------|----------------------------------------|
E|-------------------------0--------0-|-------------------------0--------------|


                             PM    ~~                             PM    ~~
e||-------------------------------------|--------------------------------------|
B||o------------------------------------|--------------------------------------|
G||--14b16==(14)r(14)p12----------------|-14b16==(14)r(14)p12------------------|
D||----------------------14----12-14--x-|---------------------14----12-14------|
A||o------------------------14----------|------------------------14------------|
E||-------------------------------------|--------------------------------------|
|
e||-------------------------------------|---------------------------------x-3--|
B||o------------------------------------|---------------------------------x-3--|
G||---2b4====(2)r=(2)p=0----------------|--2b4====(2)r=(2)p=0------------------|
D||-----------------------2-----0--2----|----------------------2-----0--2------|
A||o------------------------------------|--------------------------------------|
E||--------------------------0--------0-|-------------------------0------------|


                           PM    ~~                             PM    ~~
e|------------------------------------|--------------------------------------------||
B|------------------------------------|--------------------------------------------||
G|-14b16==(14)r(14)p12----------------|-14b16==(14)r(14)p12-------12---------------||
D|---------------------14----12-14----|---------------------14----12-14-----(14)\--||
A|------------------------14----------|------------------------14------------------||
E|------------------------------------|--------------------------------------------||
|
e|------------------------------------|---------------------------------x-3--------||
B|------------------------------------|---------------------------------x-3--------||
G|--2b4====(2)r=(2)p=0----------------|--2b4====(2)r=(2)p=0------------------------||
D|----------------------2-----0--2----|----------------------2-----0--2------------||
A|------------------------------------|--------------------------------------------||
E|-------------------------0--------0-|-------------------------0------------------||


[Verse 1/2]

   Gtr I
e|---------------------------|---------------------------|
B|---------------------------|---------------------------|
G|-2b4==(2)r(2)p0------------|-2b4==(2)r(2)p0------------|
D|----------------2---0-2----|----------------2---0-2----|
A|---------------------------|---------------------------|
E|------------------0------0-|------------------0------0-|


e|---------------------------|----------------------------|
B|---------------------------|----------------------------|
G|-2b4==(2)r(2)p0------------|-2b4==(2)r(2)p0-------------|
D|----------------2---0-2----|----------------2---0-2-----|
A|---------------------------|----------------------------|
E|------------------0------0-|------------------0------0--|


e|---------------------------|---------------------------|
B|---------------------------|---------------------------|
G|-2b4==(2)r(2)p0------------|-2b4==(2)r(2)p0------------|
D|----------------2---0-2----|----------------2---0-2----|
A|---------------------------|---------------------------|
E|------------------0------0-|------------------0------0-|


e|---------------------------|----------------------------|
B|---------------------------|----------------------------|
G|-2b4==(2)r(2)p0------------|-2b4==(2)r(2)p0-------------|
D|----------------2---0-2----|----------------2---0-2-----|
A|---------------------------|----------------------------|
E|------------------0------0-|------------------0------0--|


   Gtr II
                        PM|      ~~                          PM|      ~~
e|------------------------------------|------------------------------------|
B|------------------------------------|------------------------------------|
G|------17pb19r(17)p15----------------|------17pb19r(17)p15----------------|
D|---------------------17----15-17----|---------------------17----15-17----|
A|------------------------17----------|------------------------17----------|
E|------------------------------------|------------------------------------|
|
 | Gtr I
 |                                  PM
e|------------------------------------|------------------------------------|
B|------------------------------------|------------------------------------|
G|-5b7==(5)r====(5)p=3----------------|-5b7==(5)r====(5)p=3----------------|
D|----------------------5-----3--5----|----------------------5-----3--5----|
A|------------------------------------|------------------------------------|
E|-------------------------3--------3-|-------------------------3--------3-|


                        PM|      ~~
e|------------------------------------|-----------------------------------|
B|------------------------------------|-----------------------------------|
G|------17pb19r(17)p15----------------|-----------------------------------|
D|---------------------17----15-17----|-x-17-x-15-x-14-(14)-x-15-x-17-x---|
A|------------------------17----------|-----------------------------------|
E|------------------------------------|-----------------------------------|
|
 |                                  PM
e|------------------------------------|-----------------------------------|
B|------------------------------------|-----------------------------------|
G|-5b7==(5)r====(5)p=3----------------|-x--5-x--4-x--3--(3)-x--2-x--4-x---|
D|----------------------5-----3--5----|------------------------2----------|
A|------------------------------------|-----------------------------------|
E|-------------------------3--------0-|-----------------------------------|


   Gtr I
e|---------------------------|---------------------------|
B|---------------------------|---------------------------|
G|-2b4==(2)r(2)p0------------|-2b4==(2)r(2)p0------------|
D|----------------2---0-2----|----------------2---0-2----|
A|---------------------------|---------------------------|
E|------------------0------0-|------------------0------0-|


e|---------------------------|----------------------------|
B|---------------------------|----------------------------|
G|-2b4==(2)r(2)p0------------|-2b4==(2)r(2)p0-------------|
D|----------------2---0-2----|----------------2---0-2-----|
A|---------------------------|----------------------------|
E|------------------0------0-|------------------0------0--|


   Gtr II
e|-------------------|------------------||
B|-------------------|------------------||
G|-------------------|------------------||
D|-------------------|------------------||
A|-------------------|------------------||
E|-------------------|------------------||
|
 | Gtr I
e|---0-0--(0)--(0)---|----0--(0)--------||
B|-3---3--(3)--(3)---|-2--2--(2)---(2)/-||
G|-4---4--(4)--(4)s2-|-2--2--(2)---(2)/-||
D|-------------------|------------------||
A|-------------------|------------------||
E|-------------------|------------------||


[Chorus]

e|--------------------------|--------------------------|
B|-12-12--------------------|-12-12S15-12-(12)-(12)\---|
G|-13-13-11-13-(13)-(13)\---|-13-13S16-13-(13)-(13)\---|
D|-14-14-12-14-(14)-(14)\---|-14-14S17-14-(14)-(14)\---|
A|--------------------------|--------------------------|
E|--------------------------|--------------------------|
|
e|--------------------------|--------------------------|
B|-12-12--------------------|-12-12S15-12-(12)-(12)\---|
G|-13-13-11-13-(13)-(13)\---|-13-13S16-13-(13)-(13)\---|
D|-14-14-12-14-(14)-(14)\---|-14-14S17-14-(14)-(14)\---|
A|--------------------------|--------------------------|
E|--------------------------|--------------------------|


                   1.
e|----------------|------------|
B|----------------|------------|
G|----------------|------------|
D|----------------|------------|
A|----------------|------------|
E|----------------|------------|
|
e|---0-0--(0)---0-|-(0)--------|
B|-3---3--(3)---2-|-(2)--------|
G|-4---4--(4)---2-|-(2)--------|
D|--------------2-|-(2)--------|
A|----------------|------------|
E|----------------|------------|


e|----------------------------|----------------------------|
B|----------------------------|----------------------------|
G|----------------------------|----------------------------|
D|--------------------12------|----------------------------|
A|----------------------------|----------------------------|
E|----------------------------|----------------------------|
|
e|----------------------------|------------------------x-3-|
B|----------------------------|------------------------x-3-|
G|-2b4==(2)r(2)p0-------------|-2b4==(2)r(2)p0-------------|
D|----------------2----0-2----|----------------2---0-2-----|
A|----------------------------|----------------------------|
E|------------------0-------0-|------------------0---------|


                                ~~
e|-----------------------------------|
B|-----------------------------------|
G|------14pb16r(14)p12---------------|
D|---------------------14---12-14----|
A|------------------------x----------|
E|-----------------------------------|
|
e|-----------------------------------|
B|-----------------------------------|
G|-2b4==(2)r====(2)p=0---------------|
D|----------------------2----0--2----|
A|-----------------------------------|
E|------------------------0--------0-|


                                                2.
                                ~~
e|-------------------------------------------||-----------|--------||
B|------------------------------------------o||-----------|--------||
G|------14pb16r(14)p12-----------------------||-----------|--------||
D|---------------------14---12-14-----(14)\--||-----------|--------||
A|------------------------x-----------------o||-----------|--------||
E|-------------------------------------------||-----------|--------||
|
e|--------------------------------x-3--------||--0--------|-(0)----||
B|--------------------------------x-3-------o||--2--------|-(2)----||
G|-2b4==(2)r====(2)p=0-----------------------||--2--------|-(2)----||
D|----------------------2----0--2------------||--2--------|-(2)----||
A|------------------------------------------o||-----------|--------||
E|------------------------0------------------||-----------|--------||


[Interlude]

   Gtr I
e|------7------7-|--------------------|------7------7-|---------------------|
B|-9--x-7--x-x-7-|---x-5-(5)-7-5-(5)/-|-9--x-7--x-x-7-|--x-x-5-(5)-7-5-(5)/-|
G|-9--x-7--x-x-7-|---x-6-(6)-7-6-(6)/-|-9--x-7--x-x-7-|--x-x-6-(6)-7-6-(6)/-|
D|-9--x-7--x-x-7-|---x-7-(7)-7-7-(7)/-|-9--x-7--x-x-7-|--x-x-7-(7)-7-7-(7)/-|
A|---------------|--------------------|---------------|---------------------|
E|---------------|--------------------|---------------|---------------------|


e|------7------7-|--------------------|------7------7-|---------------------||
B|-9--x-7--x-x-7-|---x-5-(5)-7-5-(5)/-|-9--x-7--x-x-7-|--x-x-5-(5)-7-5-(5)/-||
G|-9--x-7--x-x-7-|---x-6-(6)-7-6-(6)/-|-9--x-7--x-x-7-|--x-x-6-(6)-7-6-(6)/-||
D|-9--x-7--x-x-7-|---x-7-(7)-7-7-(7)/-|-9--x-7--x-x-7-|--x-x-7-(7)-7-7-(7)/-||
A|---------------|--------------------|---------------|---------------------||
E|---------------|--------------------|---------------|---------------------||


[Guitar Solo]

   Gtr II
       ~~~~~~~
e|--------------------------|------------------------------------------|
B|--------------------------|------------------------------------------|
G|-----------------12h14-12-|-(12)----12b14==(12)r---------------------|
D|-12-14-(14)---------------|----------------------------14p12------12-|
A|--------------------------|----------------------------------14------|
E|--------------------------|------------------------------------------|
|
 | Gtr I
e|------------7-----------7-|------------------------------------------|
B|--9------x--7--x--x-----7-|-------x--5-----------(5)-7--5----(5)/----|
G|--9------x--7--x--x-----7-|-------x--6-----------(6)-7--6----(6)/----|
D|--9------x--7--x--x-----7-|-------x--7-----------(7)-7--7----(7)/----|
A|--------------------------|------------------------------------------|
E|--------------------------|------------------------------------------|


    ~~
e|--------------------------------|-------------------------------------|
B|--------------------------------|-------------------------------------|
G|--------------------------------|-------------------------------------|
D|-14-----------------------------|-------------------------------9-----|
A|-----14s12---12-10---11---------|-------------------------4s11--------|
E|------------------------12---12-|-10h12-10h12---(12)\-----------------|
|
e|-----------7---------------7----|-------------------------------------|
B|--9------x-7-------x-----x-7----|-----------x-x---5---(5)-7--5-(5)/---|
G|--9------x-7-------x-----x-7----|-----------x-x---6---(6)-7--6-(6)/---|
D|--9------x-7-------x-----x-7----|-----------x-x---7---(7)-7--7-(7)/---|
A|--------------------------------|-------------------------------------|
E|--------------------------------|-------------------------------------|


e|-----------------------------------------|
B|-----------------------------------------|
G|------------------9-11--11pb13r(11)p9----|
D|----11p9----11-11---------------------11-|
A|---------11------------------------------|
E|-----------------------------------------|
|
e|----------7-------------------------7----|
B|-9---x----7----------x---x----------7----|
G|-9---x----7----------x---x----------7----|
D|-9---x----7----------x---x----------7----|
A|-----------------------------------------|
E|-----------------------------------------|


                                     ~~~~~~~~~~~~~
e|--------------------12---------------------|-------15--------------15-17---(17)b19==|
B|--------------12h14-----12-15s17-(17)-17---|-17-17----17---17-----------------------|
G|-9h11p9-11s13------------------------------|--------------------16------------------|
D|-------------------------------------------|----------------------------------------|
A|-------------------------------------------|----------------------------------------|
E|-------------------------------------------|----------------------------------------|
|
e|-------------------------------------------|-------------7---------------7----------|
B|---------x-----5----(5)--------7---5--(5)/-|--9-----x----7----x-----x----7----------|
G|---------x-----6----(6)--------7---6--(6)/-|--9-----x----7----x-----x----7----------|
D|---------x-----7----(7)--------7---7--(7)/-|--9-----x----7----x-----x----7----------|
A|-------------------------------------------|----------------------------------------|
E|-------------------------------------------|----------------------------------------|


                                                                              ~~
e|-(17)r---17b19==(17)r---17b19==(17)r---17b19==(17)r------|-17b19==(17)r-15------------------------|
B|---------------------------------------------------------|-----------------17---17---17b21==(17)r-|
G|---------------------------------------------------------|----------------------------------------|
D|---------------------------------------------------------|----------------------------------------|
A|---------------------------------------------------------|----------------------------------------|
E|---------------------------------------------------------|----------------------------------------|
|
e|---------------------------------------------------------|--------------------7---------------7---|
B|-------x----------x---5---------(5)--7----------5---(5)/-|----------9-------x-7----x--x-------7---|
G|-------x----------x---6---------(6)--7----------6---(6)/-|----------9-------x-7----x--x-------7---|
D|-------x----------x---7---------(7)--7----------7---(7)/-|----------9-------x-7----x--x-------7---|
A|---------------------------------------------------------|----------------------------------------|
E|---------------------------------------------------------|----------------------------------------|


e|--------------------------------------------------------------------------------|
B|--17b20==(17)r---17b20==(17)r---17b20==(17)r---17b20==(17)r-(17)-17b20==(17)r---|
G|--------------------------------------------------------------------------------|
D|--------------------------------------------------------------------------------|
A|--------------------------------------------------------------------------------|
E|--------------------------------------------------------------------------------|
|
e|--------------------------------------------------------------------------------|
B|---------------x--------------5---------(5)--7----------------5----------(5)/---|
G|---------------x--------------6---------(6)--7----------------6----------(6)/---|
D|---------------x--------------7---------(7)--7----------------7----------(7)/---|
A|--------------------------------------------------------------------------------|
E|--------------------------------------------------------------------------------|


                           ~~~~~~~
e|----------------------------------------------|----------------------12------------------12----------------|
B|-17b20==(17)r(17)p15----15-(15)-17------------|-------------------12-----12-15b17==(15)r----15-12----------|
G|---------------------16------------16s14p12---|12h14p12----12-14------------------------------------14b16==|
D|--------------------------------------------14|---------14-------------------------------------------------|
A|----------------------------------------------|------------------------------------------------------------|
E|----------------------------------------------|------------------------------------------------------------|
|
e|-------------------------7----------------7----|-----------------------------------------------------------|
B|----------9-----------x--7-------x--x-----7----|-----------x----5----(5)-----7------------5----(5)/--------|
G|----------9-----------x--7-------x--x-----7----|-----------x----6----(6)-----7------------6----(6)/--------|
D|----------9-----------x--7-------x--x-----7----|-----------x----7----(7)-----7------------7----(7)/--------|
A|-----------------------------------------------|-----------------------------------------------------------|
E|-----------------------------------------------|-----------------------------------------------------------|


e|----------12-----------------12-----------------------12------------------|
B|-------12----12-15b17==(15)r----15-12--------------12----12-15b17==(15)r--|
G|-(14)r--------------------------------14b16==(14)r------------------------|
D|--------------------------------------------------------------------------|
A|--------------------------------------------------------------------------|
E|--------------------------------------------------------------------------|
|
e|------------------------------7------------------------------7------------|
B|---9-------------x------------7----------------x-------x-----7------------|
G|---9-------------x------------7----------------x-------x-----7------------|
D|---9-------------x------------7----------------x-------x-----7------------|
A|--------------------------------------------------------------------------|
E|--------------------------------------------------------------------------|


e|-12----12--------------12------------12--------------12--------------12-|
B|----15----15b17==(15)r----15b17-(15)----15b17==(15)r----15b17==(15)r----|
G|------------------------------------------------------------------------|
D|------------------------------------------------------------------------|
A|------------------------------------------------------------------------|
E|------------------------------------------------------------------------|
|
e|------------------------------------------------------------------------|
B|--------x----------x----5--------(5)-----7------------5---------(5)/----|
G|--------x----------x----6--------(6)-----7------------6---------(6)/----|
D|--------x----------x----7--------(7)-----7------------7---------(7)/----|
A|------------------------------------------------------------------------|
E|------------------------------------------------------------------------|


                                                                               ~~~~
e|-15p12----12--------------------------------------------------------|--------------|
B|-------15----15p12----15-12----12-----------------------------------|--------------|
G|-------------------14-------14----14b16==(14)-(14)r(14)p12----12-14-|-12---(12)----|
D|-----------------------------------------------------------14-------|--------------|
A|--------------------------------------------------------------------|--------------|
E|--------------------------------------------------------------------|--------------|
|
e|--------------------7-----------------------------------------------|--------------|
B|--9-----------x-----7-----------x---------------x-----------7-------|-(7)----------|
G|--9-----------x-----7-----------x---------------x-----------7-------|-(7)----------|
D|--9-----------x-----7-----------x---------------x-----------7-------|-(7)----------|
A|------------------------------------------------------------5-------|-(5)----------|
E|--------------------------------------------------------------------|--------------|


     ~~~~
e|------------------------|
B|------------------------|
G|-(12)----------(12)\----|
D|------------------------|
A|------------------------|
E|------------------------|
|
e|------------------------|
B|--(7)-------------------|
G|--(7)-------------------|
D|--(7)-------------------|
A|--(5)----x-4-x---5---7\-|
E|------------------------|


                                                        2/4
                                     ~~
                                           8x
e||----------------------------------------||----------|------|
B||o--------------------------------------o||----------|------|
G||-------14pb16r(14)p12-------------------||----------|------|
D||----------------------14------12-14-----||----------|------|
A||o------------------------(14)----------o||----------|------|
E||----------------------------------------||----------|------|
|
 |                                         8x
e||----------------------------------------||-0--------|-0----|
B||o--------------------------------------o||-3--------|-2----|
G||--2b4==(2)r====(2)p=0-------------------||-4--------|-2----|
D||-----------------------2-------0--2-----||----------|------|
A||o--------------------------------------o||----------|------|
E||---------------------------0---------0--||----------|------|


[Post-Chorus]

  4/4
e|--------------|------------||--------------------------|
B|--------------|------------||-12-12--------------------|
G|--------------|------------||-13-13-11-13-(13)-(13)\---|
D|--------------|------------||-14-14-12-14-(14)-(14)\---|
A|--------------|------------||--------------------------|
E|--------------|------------||--------------------------|
|
e|--------------|------------||--------------------------|
B|-3----(3)---5-|-(5)--------||-12----10-12-(12)-(12)\---|
G|-4----(4)---2-|-(2)--------||-13----11-13-(13)-(13)\---|
D|-5----(5)-----|------------||-14----12-14-(14)-(14)\---|
A|--------------|------------||--------------------------|
E|--------------|------------||--------------------------|


e|-------------------------------|
B|-12----------------------------|
G|-13-------/16-13-(13)----------|
D|-14----14-/17-14-(14)-(14)\----|
A|-------------------------------|
E|-------------------------------|
|
e|-------------------------------|
B|-12-12-12S=15-12-(12)-(12)\----|
G|-13-13-13S=16-13-(13)-(13)\----|
D|-14-14-14S=17-14-(14)-(14)\----|
A|-------------------------------|
E|-------------------------------|


   Gtr I
e|-0-------0-|-(0)------(0)-(0)-(0)-|-(0)-(0)-(0)-(0)-(0)-(0)-(0)-(0)-|
B|-3-------2-|-(2)------(2)-(2)-(2)-|-(2)-(2)-(2)-(2)-(2)-(2)-(2)-(2)-|
G|-4-------2-|-(2)------(2)-(2)-(2)-|-(2)-(2)-(2)-(2)-(2)-(2)-(2)-(2)-|
D|---------2-|-(2)------(2)-(2)-(2)-|-(2)-(2)-(2)-(2)-(2)-(2)-(2)-(2)-|
A|-----------|----------------------|---------------------------------|
E|-----------|----------------------|---------------------------------|


e|-(0)-(0)-(0)------|-(0)------------*|
B|-(2)-(2)-(2)------|-(2)------------*|
G|-(2)-(2)-(2)------|-(2)------------*|
D|-(2)-(2)-(2)------|-(2)------------*|
A|------------------|----------------*|
E|------------------|--------5s0-----*|


 
************************************

| x    Dead note
| (n)  Ghost note
| h    Hammer-on
| p    Pull-off
| b    Bend
| pb   Pre-bend
| /    Slide up
| \    Slide down
| s    Slap 

************************************
Suggest correction
What's this?
You can suggest a correction to this tab. Community and Mods will review your correction and vote to approve or reject it.
comments
print report bad tab
10 comments total. Showing first comments.
0 reply
jcwear 508 wrote on February 13 2005, 12:00 am

great tab, professionly done. Excellent!!

0 reply
ce12872001 86 wrote on March 4 2008, 03:54 pm

why does this tab only have 4 stars

0 reply
yankovicfan3125 104 wrote on November 16 2008, 07:44 pm

how do you bend that high from 2 to 4? since its so close to the nut, I can only get it to go half a step!

guest
You may want to rate the tab now too:
select rating
Please do not post tabs as comments. Select "correction" instead!