Oops, an error
Loading. Please wait.

Are You Gonna Go My Way Tab

version 4
version 4

Whole song

Interactive

Video

19,222 views 9 this week
1 commentread comment
1 2 3 4 5
accurate
x 4
add to favorites
launch autoscroll
font size
0
reset
how to read this tab
guitar tuner
Autoscroll
slow
fast
+/-
esc
set tempo
stop
Help us to improve Ultimate-Guitar.com Take our survey!
×
(Main riff Guitar 1)
                    (Don't play power chord when singing is going on)
e|------------------|---------------------------|
B|------------------|---------------------------|
G|------------------|----------------7----------|
D|-5^7^5-5----------|-5^7^5-5--------7----------|
A|---------7-5-7----|---------7-5-7--5----------|
E|------------------|---------------------------|


(Guitar 2 riff)

(Comes in after you play the main riff 4 times)

e|----------------------|
B|----------------------|
G|-12^14^12-12----------|
D|-------------14-12-14-|
A|----------------------|
E|----------------------|

3rd riff

(Come in on the lyrics...)

So that's why....

e|------------------------|
B|------------------------|
G|-15^17^15-15------------|
D|-------------17-15-17---|
A|------------------------|
E|------------------------|


Chords

(Play these BAR! chords after these lyrics...) 

                                     
1st time: We've got to breath and have some fun!
2nd time:...And kill each other one by one!
  

   A      G      A      E      D      E
e--5---|--3---|--5---|--7---|--5---|--7---|
B--5---|--3---|--5---|--9---|--7---|--9---|
G--6---|--4---|--6---|--9---|--7---|--9---|
D--7---|--5---|--7---|--9---|--7---|--9---|
A--7---|--5---|--7---|--7---|--5---|--7---|
E--5---|--3---|--5---|--x---|--x---|--x---|

(1st time)

Oh so now i've played, i've played this game, and i won't stop until im 
             
done!

 D            A                    E                    D  A 
But what i really want to know is...Are you gonna go my way!?   

E                 D
And I got to, got to know! 


(2nd time)

                                                                
We've got to hold and luvva dub we've got to dance and be in love

D              A                     E                    D  A
  But what i really want to know is...Are you gonna go my way!?

E                  D           D      E     A    D    E    A.....
And i got to, got to know....
Suggest correction
What's this?
You can suggest a correction to this tab. Community and Mods will review your correction and vote to approve or reject it.
comments
print report bad tab
1 comment total.
0 reply
Stevie Ray SRV 17 wrote on March 16 2014, 04:50 pm

this is less confusing than most of the other tabs, top job

guest
You may want to rate the tab now too:
select rating
Please do not post tabs as comments. Select "correction" instead!