Oops, an error
Loading. Please wait.

Believe Bass Tab

version 1
version 1

Whole song

Interactive

2,529 views 12 this week
no commentswrite comment
1 2 3 4 5
please rate
add to favorites
launch autoscroll
font size
0
reset
guitar tuner
Autoscroll
slow
fast
+/-
esc
set tempo
stop
Help us to improve Ultimate-Guitar.com Take our survey!
×
Believe, by Lenny Kravitz

Tabbed by Jean-Gabriel STEINMETZ ( jeangabi@club-internet.fr )


 Intro
																														I am you...       																														If you want it...										
G-------------------------------------------------------------------------------
D-----------------------------------------------------------------------9-------
A----------------------------------------------------------7--5----7-10---10----
E--5-----1-----5-----1-----5-----1-----3-5-----1-----1/5---------8--------------

		           Who are we								                        But who we are                                                                                         We've got...
G-------------------13-12-10----------------------------------------------------------
D----------------------------12-11-10-------------------------------------------------
A-------------------------------------10-12--------------------------------------7--5-
E-5--0-5---5---1/10-------------------------12-10-8-5---0-5-5--3--1--1-1--1--1/5------

 							                     yeah...
G------------------
D----------7-------
A-5---7-10---10--5-
E---8--------------

Chorus
                if you want it, you got it, you've just got to believe,                       believe in yourself
G---------------------------------------------------------------------------
D--------------------------------------------------------/5---3-------------
A------1-----------------------------------7----6-----3-------------------0-
E-1h3--------5--------3----------1------/5--------------------------1--3----

     'cause it's all just a game, we just want to be loved
G----------------------------------------------------4-5-4---------
D--------------------------------------------------6-------6-------
A--1------------------------------------7----6---7-----------7-----
E--------5------3-----------1-------/5-----------------------------

Verse

G--------------------------------------------------------------------------------------
D---------------------------------------------------------------------------7----------
A-------------------------------------------------------------7--5-5---7-10---10-------
E--5---0-5-5--3--1---1-1-1--3--5---0-5-5--3--1---1-1-1--0-1/5--------8------------10---


G--------------------------------------------------------------------------------------
D----------------------------------------------------------------------------7---------
A------------------------------------------------------------7--5--5----7-10---10------
E-0-5---0-5-5--3--1---1-1-3-4-5---0-5-5--3--1---1-1-1--0-1/5---------8------------10---


Play Chorus 

Verse

G-------------------13-12-10--------------------------------------------------------------
D----------------------------12-11-10----------------------------------3h5p3--------------
A-------------------------------------10-12------------------------3h5--------3h5p3-------
E-5--0-5-5---1/10---------------------------12-10-8-5---0-5-5--3--------------------1h3p1-

              if you want it, you've got to believe yeah..
G-----------------------------------
D--------------------------7--------
A--7-------5----5-----7-10---10-----
E------------------8------------10--

Play Chorus 

Solo


G------------------------------------------------------------------------------------
D------------------------------------------------------------------------------------
A-------------------------7--7-8----7-5---5-5----------------------------------------
E---5---5-3-1-1--3-3--/5----------------8------3---3-3--3-3-3---0-3-4-5---5-3-1-1--3-


G---------------------------------------------------------------------------------------------
D---------------------------------------------------------------------------------------------
A----------10-8-7--7-8--7-5---5-5--------------------------------------------7--7-8----7-5----
E--/7--10-------------------8-----3--3-3--3-3-3---0-3-4-5---5-3-1-1--3--3-/5----------------8-


G-------------------------------------
D-------------------------------------
A--5-7-5---5--------------------------
E--------8---3-3-3--3-3-3---0-3-4-5--- repeat solo part and fade...


h: hammer on
p: pull off

September 2000
Suggest correction new What's this?
You can suggest a correction to this tab. Community and Mods will review your correction and vote to approve or reject it.
comments
We did not receive enough feedback on this tab! Please rate:
print report bad tab
1 2 3 4 5
guest
You may want to rate the tab now too:
select rating
Please do not post tabs as comments. Select "correction" instead!