Oops, an error
Loading. Please wait.

Black And White Americ Bass Tab

2,382 views 1 this week
no commentswrite comment
1 2 3 4 5
2 more votes to show rating
add to favorites
launch autoscroll
font size
0
reset
guitar tuner
Autoscroll
slow
fast
+/-
esc
set tempo
stop
Help us to improve Ultimate-Guitar.com Take our survey!
×
Author
Difficulty
intermediate
This is my first tab so there can some be mistakes.
You can hammer on the notes in the chorus.


Verse


G|----------------------------------------------------------------|
D|----------------------------------------------------------------|
A|-----------0--0-0--------0-0-0-0-0------------------------------|
E|-(5)--------------3-5----------------3-5------------------------|

G|----------------------------------------------------------------|
D|----------------------------------------------------------------|
A|-2-2-0-2-0-5-5--------------------------------------------------|
E|----------------------------------------------------------------|

Chorus

G|-------------7-5-2-------------------7-5------------------------|
D|--7-5-2------------------3-2-------------9----------------------|
A|-0-------3-5-----------0-----3-0-5------------------------------|
E|----------------------------------------------------------------|

Bridge

G|---------------------------------------------------------------------------|
D|----3-----3-----3------3-------5----5-----5-----5--------7----7-----7----7-|
A|---------------------------------------------------------------------------|
E|-1-----1-------1-----1------3-----3------3-----3------5-----5-----5----5---|


G|------3-----3-----3-------3-------------------------------------|
D|----------------------------------------------------------------|
A|----------------------------------------------------------------|
E|--1-------1---- 1-------1-----------1-0-------------------------|
Suggest correction
Give kudos to tab author, rate the tab!
1 2 3 4 5
comments
print report bad tab
guest
You may want to rate the tab now too:
select rating
Wanna post a correction for this tab? Suggest correction