Oops, an error
Loading. Please wait.

Black Girl Tab

1,201 views 1 this week
no commentswrite comment
1 2 3 4 5
please rate
add to favorites
launch autoscroll
font size
0
reset
how to read this tab
guitar tuner
Tab Pro tools
  • play this tab
  • loop segment
  • change instrument
  • show fretboard
  • metronome
×
Best way to learn
"Black Girl"
Autoscroll
slow
fast
+/-
esc
set tempo
stop
Contributor
Difficulty
intermediate
Artist: Lenny Kravitz
Song: Black girl
Album: ARE YOU GONNA GO MY WAY (1993)
Tabbed By: Rémy Pires

Hey hey everybody !!!! This is a cool song from a great artist
SO ENJOY IT !!!

  D       A     G        A      D       A       G           A
Black girl, so fine and bright Black girl, you shine as the night
  D#       A#     G#          A#
Black girl, you move me so right
	C#       G#        A#		   C#       G#        A#
I just have to make you mine   'Cause you make me lose my mind

  D#       A#       G#         A#     D#       A#       G#           A#
Black girl, with beauty so deep Black girl, just rock me to sleep
  E      B       A             B
Black girl, good things you will reap
	  D     A       B
'Cause you're of the ancient vine
             D   A     B            D       A       B
and you're from another time and your history's all in line

D                              A
  Ain't it funny how I used to wonder
C                                      B
  how could such a lovely girl give me love oh oh oh oh yeah yeah


Solo: (E  B  A  B)   x3  (D  A  B)  x3

  E       B      A           B     E       B          A          B
Black girl, your ancestry's long Black girl, you're where you belong
  F        C       A#          C           D#         A#      B#
Black girls, have got to be strong got to keep your spirits high
        D#       A#       B#           D#         A#       B#
got to keep yourselves alive you're just gonna make it fine
D#  A#           B#  D#  A#                                    B#
     listen baby        listen baby I just got to make you mine


VERSE 1
-------------------------------------------------------5--------------|
-------7-----------------3-----5-5-5---5---------7-------5-------3----|
-------7-6--7------------4-----6-6-6h7-6--6------7----6---6------4--6-|
----7----7--7h9p7--------5----------------7------7----7-----7----5--7-|
---5-----7--------9-----5---7----------------5-7/9-7--7---------5---7-|
---------5------------3-----5----------------------5----------3-----5-|

							CHORUS
----------------------6h8p6\----------------------------|----4-4---4-6-|
-------------------8--6----\----------------------------|-6--4-4h6-4-6-|
-------------------8--7----\---8-8----------------5---7-|-6--5-5---5-7-|x2
-------------------8-----------8-8h10p8-----------6---8-|-6--6-------8-|
---------6-8---6-8/10------------------10------6------8-|-4--6-------8-|
-5-5-6/8-------------------------------------4--------6-|----4-------6-|


VERSE 2
---------------------------------------------------------------------------|
-----8-------11--------------4-----6-6-6---6--------8------11--------------|
-----8---7-----8-------------5--7--7-7-7h8-7-7------8---7-----8----------8-|
-----8---8-----8h10p8--------6--8------------8------8---8-----8h10p8-----8-|
-6-8/10--8-----------------6----8---------------6-8/10--8------------8/10--|
---------6---------------4------6-----------------------6------------------|

---------------------------------------7-----------------------------|
------4-----------------------9----------7------5------7-7-7---7---7-|
------5--7--------------------9---8-------------6---8--8-8-8h9-8-8-8-|
------6--8--------------------9---9-------------7---9------------9---|
----6----8----------7-9-7-7-9/11--9-----------7-----9----------------|
--4------6--6-6-7/9---------------7---------5-------7----------------|


CHORUS
|------5-5---5--7-----------------5-5---5-7----------9---------9--7-|
|-7----5-5h7-5--7------------7----5-5h7-5-7----7-----10--10----10-7-|
|-7...-6-6---6--8--7h9p7---7-7...-6-6---6-8...-7...--9---9-h11----8-|
|-7----7--------9--------9-7-7----7-------9----7------------------9-|
|-5----7--------9------------5----7-------9----5------------------9-|
|------5--------7-----------------5-------7-----------------------7-|


BRIDGE

12-10-12-------5---8-------|
10-10-10-------5---8-------|
11-11-11-...---6---9----8--|
12-12-12-------7---10---9--|
------------------------9--|
------------------------7--|


SOLO
-------------------------------------------------------------------------|
------9-------------------5----8/9~~--7/8\7~~-----9-------------------5--|
------9---8----8----------6----7/8~~--6/9\6~~-----9---8----8----------6--|
------9---9------9--------7-----------------------9---9------9--------7--|
--7-9/11--9--9-----9----7---------------------7-9/11--9--9-----9----7----|
----------7-----------5-------------------------------7-----------5------|

-----------------------------------------------------|
----------------------9------9--------------------5--|
-8--------------------9--8-----9-----------9------6--|
-9--------------------9--9-----9h11p9------9------7--|
-9---------9-11--7-9/11--9------------9/11------7----|
-7-7-9/11----------------7--------------------5------|


----------5-5---5--7---------5-5h7-5-7------5---7-|
7----7----5-5h7-5--7----7----5-5---5-7----7-5---7-|
8----7----6-6---6--8----7----6-6---6-8----7-6---8-|
9...-7...-7--------9...-7...-7-------9...-7-7...9-|
9----5----7--------9----5----7-------9----5-7---9-|
7---------5--------7---------5-------7------5---7-|


----------------------------------------------------------------------------|
----------------------------------------------------------------------------|
-------11b13-11b13r11~~---8-9-9b11-~~-11r9h8p9h8p9h8------------------------|
-//9-9~~---------------------------------------------9b11r9--/(17)\---------|
----------------------------------------------------------------------------|
----------------------------------------------------------------------------|

-----------------------------------------------------------------------------|
-----------------------------------------------------------------------------|
----------------------------------------/13---16-16-16b18~~-16b18~~--16b18~~-|
-/6-6-7--7b9~~----7-6-7-6h7p6------------------------------------------------|
-------------------------------7/9-------------------------------------------|
-----------------------------------7-----------------------------------------|

----------------------------------------------------------------------------|
----------------------------------------------------------------------------|
-16b18r16h13----13-------------------------14-13-14-13-14/16----------------|
-------------16----16-16b18r16h14----------------------------14-16/18-16----|
----------------------------------16-14-------------------------------------|
----------------------------------------------------------------------------|


-----------------------------------------------------------------------------|
-----------------------------------------------------------------------------|
-----------------------------------------------------------------------------|
-16-14-14h16p14-13h14p13-13-14-14b16---14b16r14~~-14/16-14-13-~~-------------|
-----------------------------------------------------------------------------|
-----------------------------------------------------------------------------|


----------------------------------------------------------------------------|
-----17-19-19b21--19-17-19-17h19p17-16-17-16h17p16--------------------------|
-/16-----------------------------------------------16-16b18---16\13~~~~-----|
----------------------------------------------------------------------------|
----------------------------------------------------------------------------|
----------------------------------------------------------------------------|


VERSE 3
--------------------------------------------------------------7h9p7-\-------------------|
------9------9--------------------5----8/9~~--7/8\7~~-----9---7-----\-------------------|
------9---8----9-----------9------6----7/8~~--6/9\6~~-----9---8-----\-------------------|
------9---9----9h11p9------9------7-----------------------9------------9-9h11p9------9--|
--7-9/11--9-----------9/11------7---------------------7-9/11--------------------9/11-11-|
----------7-------------------5---------------------------------------------------------|

---------------------------------------------------------------------------|
-----5---------------10----------------------6-----8-8-8----8----8---------|
-----6--8------------10--9------9------------7--9--9-9-9h10-9-9--9---------|
-----7--9...---------10--10-------10---------8--10------------10-----------|
---7----9-------8-10/12--10---10-----10----8----10-------------------------|
-5------7----------------8--8------------6------8--------------------------|

CHORUS
|-------6-6---6---8---------------------------6----8--|
|-8-----6-6h8-6---8-------------------8-------6----8--|
|-8-----7-7---7---9------8h10p8----8--8-------7----9--|
|-8...--8---------10-...--------10-10-8...----8-...10-|X ...
|-6-----8---------10------------------6-------8----10-|
|-------6---------8---------------------------6----8--|


For any comments or suggestions mail to rems_braz@hotmail.fr
comments
We did not receive enough feedback on this tab! Please rate:
print report bad tab
1 2 3 4 5
I want to post or [tab]
guest
You may want to rate the tab now too:
select rating
Please do not post tabs as comments. Select "correction" instead!