Oops, an error
Loading. Please wait.

Bring It On Tab

version 1
version 1

Whole song

Interactive

5,067 views 6 this week
1 commentread comment
1 2 3 4 5
excellent!
x 4
add to favorites
launch autoscroll
font size
0
reset
how to read this tab
guitar tuner
Tab Pro tools
  • play this tab
  • loop segment
  • change instrument
  • show fretboard
  • metronome
Autoscroll
slow
fast
+/-
esc
set tempo
stop
Contributor
Artist: Lenny Kravitz
Song: Bring It On
Album: It's time for a love revolution (2008)
Tabbed By: Rémy Pires


This song kick ass !!!! Enjoy it !!

 
Intro

|----------------------------------|
|----------------------------------|
|--9-9-7-9-9-7-9-9-7-9-9-7--9--7---|x4
|--9-9-7-9-9-7-9-9-7-9-9-7--9--7---|
|--7-7-7-7-7-7-7-7-7-7-7-7--7--7---|
|----------------------------------|


Verse

|----------------------------------|
|----------------------------------|
|--9-9-7-9-9-7-9-9-7-9-9-7--9--7---|
|--9-9-7-9-9-7-9-9-7-9-9-7--9--7---|
|--7-7-7-7-7-7-7-7-7-7-7-7--7--7---|
|----------------------------------|
                                    
|----------------------------------|-------|
|----------------------------------|-------|
|--9-9-7-9-9-7-9-9-7-9-9-7--9--7---|---9~~-|
|--9-9-7-9-9-7-9-9-7-9-9-7--7--5---|---9~~-|
|--7-7-7-7-7-7-7-7-7-7-7-7---------|---7~~-|
|----------------------------------|-------|


Chorus

|-----------------------------------------------|
|-----------------------------------------------|
|-2-2-2-----2----2------2-2-2-----2----2--------|
|-2-2-2-----2----2------2-2-2-----2----2--------|
|-0-0-0-----0----0------0-0-0-----0----0--------|
|-------3b---------3b---------3b---------3b-----|


|--------------------------------------------0--|
|--------------------------------------------0--|
|-2-2-2-----2----2------2-2-2-----2----2-----X--|
|-2-2-2-----2----2------2-2-2-----2----2-----2--|
|-0-0-0-----0----0------0-0-0-----0----0-----2--|
|-------3b---------3b---------3b---------3b--0--|


Solo

|----------------------------------------------|
|-15-----------------------11------------------|
|-14b16-----12--12h14p12-----14--12h14p12-12---|
|------------------------14--------------------|
|----------------------------------------------|
|----------------------------------------------|

|------------------------------------------------|
|------------------------------------------------|
|------------------------------------------------|
|-14-12----12h14p12------------------------------|
|-------14----------14-12---12h14p12-------------|
|-------------------------15---------15-12-10-12-|

|----------------------------------|
|----------------------------------|
|----------------------------------|
|----------------------------------|
|-10--12--10--12--10--12--13-12-10-|
|----------------------------------|

|------------------------------------------------|
|------------------------------------------------|
|---------------------------------------------12-|
|----------------------------12h14p12---12-14----|
|-------10h12p10----10-12/14----------14---------|
|-10/12----------12------------------------------|


|------------------------12-----------------------------------------------|
|---------12-15-12----------15-12------12-15p12-----12-15p12-----12-15p12-|
|--14b16-----------14b16----------14b16--------14b16--------14b16---------|
|-------------------------------------------------------------------------|
|-------------------------------------------------------------------------|
|-------------------------------------------------------------------------|

|---------------------------------12-----------12-15-17-15-17-17b19-|
|--------12-15p12------12-15-12-15--------15b16---------------------|
|--14b16----------14b16---------------------------------------------|
|-------------------------------------------------------------------|
|-------------------------------------------------------------------|
|-------------------------------------------------------------------|

|-17b19-17b19-17b19~~---------12-15-17---19b22--19-18-17------------------|
|-----------------------15b16---------------------------20-20b22r20p17-20-|
|-------------------------------------------------------------------------|
|-------------------------------------------------------------------------|
|-------------------------------------------------------------------------|
|-------------------------------------------------------------------------|

|-------------15-12---------------------------------------12--------------|
|-15b17r15p12-------15-12-------------------------------12--12-15-12------|
|-------------------------14-12----12-14-12----12-14b16--------------14b16|
|-------------------------------14----------14----------------------------|
|-------------------------------------------------------------------------|
|-------------------------------------------------------------------------|

|--12----------------------12--------12---------12-|
|----15h12-----12---------12-------12---------12---|
|---------14b16-----14b16-----14b16------14b16-----|
|--------------------------------------------------|
|--------------------------------------------------|
|--------------------------------------------------|

|--12--12------12--------------------------------|
|----12---15b17--15b17rp12--15----15-------------|
|---------------------------14b16-14b16r14p12-14-|
|------------------------------------------------|
|------------------------------------------------|
|------------------------------------------------|

|-------------------------------------------------------------------------|
|-------------------------------------------------------------------------|
|-12-14-12-14-12h14p12p11--12-11h12p11---12-------------------------------|
|--------------------------------------14--14--12--11--12--11h12p11--11---|
|------------------------------------------------------------------14--14-|
|-------------------------------------------------------------------------|

|---------------------------------|
|---------------------------------|
|---------------------------------|
|---------------------------------|
|12-10-12-12-12-12-12-12--12\10---|
|---------------------------------|

|------------------------------------------------------------|
|------------------------------------------------------------|
|-------------------------------------11--12--11--12--11--12-|
|-----------11-12-11h12p11---11-12-14------------------------|
|--10/12--14---------------14--------------------------------|
|------------------------------------------------------------|

|-------------------------------12-----------------------------------|
|----------------------------12----12-15-15b17--15b17--15b17--15b17~~|
|-12b14r12-----12-14-14b16-------------------------------------------|
|-----------14-------------------------------------------------------|
|--------------------------------------------------------------------|
|--------------------------------------------------------------------|

|-12-----------------------------12----------------------|
|----12--15-15b17--15b17-15b17------12-15b17-15b17-15b17-|
|--------------------------------------------------------|
|--------------------------------------------------------|
|--------------------------------------------------------|
|--------------------------------------------------------|


|------------------------------------------|
|-17r15p12---12----------------------------|
|----------14---14-14b16r14p12-14b16-14b16-|
|------------------------------------------|
|------------------------------------------|
|------------------------------------------|

|--12-----------12----15b17-15b17-15b17-12---12----------------------|
|-----12-15b17-----12---------------------------12-15b17-15-12--15---|
|---------------------------------------------------------------14b16|
|--------------------------------------------------------------------|
|--------------------------------------------------------------------|
|--------------------------------------------------------------------|

|---------------------------------------|
|-15----15----15------15----15----------|
|-14b16-14b16-14b16---14b16-14b16-------|
|---------------------------------------|
|---------------------------------------|
|---------------------------------------|


Corrections and comments at rems_braz@hotmail.fr
comments
print report bad tab
1 comment total.
0 reply
XrossRock wrote on March 22 2008, 06:22 pm

nice tab. keep it up.

I want to post or [tab]
guest
You may want to rate the tab now too:
select rating
Please do not post tabs as comments. Select "correction" instead!