Oops, an error
Loading. Please wait.

Come On Get It tab

version 1
version 1

Whole song

5,706 views 1 this week
2 commentsread comments
1 2 3 4 5
x 4
add to favorites
×
Save as Personal and add changes to this tab that will be seen only by you. Learn more ›
×
You can save this tab as Personal to edit and correct it or add notes. All changes will be seen only by you. Learn more »
launch autoscroll
font size
0
reset
how to read this tab
guitar tuner
edit
Autoscroll
slow
fast
+/-
esc
set tempo
stop
Author
Difficulty
LENNY KRAVITZ 'COME ON GET IT' (NEGROPHILIA)

Tabbed from the Lenny's new NBA video on YouTube
(http://www.youtube.com/watch?v=QPksYDzmwd4)

Standard EADGBe tuning

(To be edited)


---------------------------------------------------------------|   main riff
---------------------------------------------------------------|
---------------------------------------------------------------|
---------------------------------------------------------------|
--------------3b---------------------3b-----------------5-3----|
---3--5--x-x------5--x-x--3--5--x-x------5--x-x--3h5p3---------|



---------------------------------------------------------------------|
---------------------------------------------------------------------|
---9-x-8-x-7-----------------------7-x-6-x-5-------------------------|
---9-x-8-x-7--------(notes)--------7-x-6-x-5--------(notes)----------|
---7-x-6-x-5-----------------------5-x-4-x-3-------------------------|
---------------------------------------------------------------------|   (x2)



---------------------------------------------------------------|
---------------------------------------------------------------|
---------------------------------------------------------------|
---5555555544444444--------------------------------------------|
---5555555544444444--------------------------------------------|   (then back
---7777777766666666---(slide up)-------------------------------|    to main)

            
            
Suggest correction
Creating personal tab
Creating personal tab
You can edit any tab online and save it as your Personal.

You can edit, replace or remove any tab part or add personal notes – all changes will be seen only by you.

Personal tabs can be accessed anytime from any device, even offline.
Learn more »
comments
print report bad tab
2 comments total.
0 reply
agentguerry 352 Mar 15, 2011 09:01 AM

Are the notes in between something like:

(First step down) E, Eb, D
---------------------------------------------------------------|
---------------------------------------------------------------|
------------7-7--------7-7---------7-7-------------------------|
---------------------------------------------------------------|
------7--9-------7--9-------7--9-------------------------------|
---------------------------------------------------------------|

(Second step down) D, Db, C
---------------------------------------------------------------|
---------------------------------------------------------------|
------------5-5--------5-5---------5-5-------------------------|
---------------------------------------------------------------|
------5--7-------5--7-------5--7-------------------------------|
---------------------------------------------------------------|

0 reply
captainsnazz 50 Sep 07, 2011 07:59 AM

The guy above me is almost right:

G-----------7-7-------7-7--------7---------------------------|
D------------------------------------------------------------|
A------7/9-------7/9-------7/9-------------------------------|

G-----------5-5-------5-5--------5---------------------------|
D------------------------------------------------------------|
A------5/7-------5/7-------5/7-------------------------------|

At least that's how it sounds to me

guest
You may want to rate the tab now too:
select rating
Wanna post a correction for this tab? Suggest correction