Oops, an error
Loading. Please wait.
We have an official Fly Away tab made by UG professional guitarists. Check out the tab »
×
14,311 views 201 this week
17 commentsread comments
1 2 3 4 5
x 28
add to favorites
×
Save as Personal and add changes to this tab that will be seen only by you. Learn more ›
×
You can save this tab as Personal to edit and correct it or add notes. All changes will be seen only by you. Learn more »
launch autoscroll
font size
0
reset
how to read this tab
guitar tuner
backing track
0:00
0:00
edit
Autoscroll
slow
fast
+/-
esc
set tempo
stop
e--------------------------------------
B--------------------------------------
G--------------------------------------
D--------------------------------------
A--55555-7--8-8-8-8-8-55555-1212121212-
E--77777-9-1010101010-33333-1010101010-

Thats basically it!!

            
            
Suggest correction
Creating personal tab
Creating personal tab
You can edit any tab online and save it as your Personal.

You can edit, replace or remove any tab part or add personal notes – all changes will be seen only by you.

Personal tabs can be accessed anytime from any device, even offline.
Learn more »
comments
print report bad tab
17 comments total. Showing first comments.
+1 reply
LiquidX 10 Mar 13, 2003 07:00 PM

Nice work

-2 reply
Sloofus 45 Oct 04, 2003 08:00 PM

BZZZZT WRONG, TRY AGAIN DUMBASS. It\'s played using an E bar chord.

E:-5--5-5-5--7-7/8---8--8--8--x-x-3--3-3-3-x-x-10--10-10-10
B:-5--5-5-5--7-7/8---8--8--8--x-x-3--3-3-3-x-x-10--10-10-10
G:-6--6-6-6--8-8/9---9--9--9--x-x-4--4-4-4-x-x-11--11-11-11
D:-7--7-7-7--9-9/10--10-10-10-x-x-5--5-5-5-x-x-12--12-12-12
A:-7--7-7-7--9-9/10--10-10-10-x-x-5--5-5-5-x-x-12--12-12-12
E:-5--5-5-5--7-7/8---8--8--8--x-x-3--3-3-3-x-x-10--10-10-10

0 reply
SKATER~DUDE431 80 May 10, 2004 08:00 PM

sloofus, dude it can be played BOTH WAYS. your way i think is the way it is played on the song but, as my guitar teacher says, "as long as it sounds good, go for it!"

guest
Wanna post a correction for this tab? Suggest correction