Oops, an error
Loading. Please wait.
We have an official I Belong To You tab made by UG professional guitarists. Check out the tab »
×
118 views 30 this week
no commentswrite comment
1 2 3 4 5
3 more votes to show rating
add to favorites
×
Save as Personal and add changes to this tab that will be seen only by you. Learn more ›
×
You can save this tab as Personal to edit and correct it or add notes. All changes will be seen only by you. Learn more »
launch autoscroll
font size
0
reset
transpose
0
reset
simplify chords
display chords
guitar tuner
edit
Autoscroll
slow
fast
+/-
esc
set tempo
stop
Strumming Are these strumming patterns correct? Yes No
verse 85 bpm
1
 
&
 
2
 
&
 
3
 
&
 
4
 
&
 
5
 
&
 
6
 
&
 
7
 
&
 
8
 
Listen
Chorus 85 bpm
1
 
&
 
2
 
&
 
3
 
&
 
4
 
&
 
Listen
----------------------------------------------------------------------------------------------------
                           Lenny Kravitz - I Belong To You
----------------------------------------------------------------------------------------------------

Album : 5 (1998)
Tempo : 85
E-mail: gwendal.mollo@orange.fr
Tabbed by: newg    (http://profile.ultimate-guitar.com/newg/)

You can play for an easier way, with a capo on 3, transpose -3, use the simplify option to remove
the extra chords (Gm/B Gm/A#...)
There is a lot of variations in the bass, it's for this reason i had the extra chords,
but don't play the entire chord, just the bass (like the Cm/B of the intro, just play the "B" note)
See my guitar pro accoustic version for more.


[Intro]

   Cm            Cm/B                Cm
e|-3-x-3-3-x-3-x---3-x-x-x-x-x-x-x-|-3-x-3-3-x-3-x---3-x-x-x-x-x-x-x-|
B|-4-x-4-4-x-4-x---4-x-x-x-x-x-x-x-|-4-x-4-4-x-4-x---4-x-x-x-x-x-x-x-|
G|-5-x-5-5-x-5-x---5-x-x-x-x-x-x-x-|-4-x-4-4-x-4-x---4-x-x-x-x-x-x-x-|
D|-5-x-5-5-x-5-x---5-x-x-x-x-x-x-x-|-5-x-5-5-x-5-x---5-x-x-x-x-x-x-x-|
A|-3-x-3-3-x-3-x-2-3-x-x-x-x-x-x-x-|-3-x-3-3-x-3-x-2-3-x-x-x-x-x-x-x-|
E|---------------------------------|---------------------------------|

   Gm                                Gm                        Gm/B
e|-3-x-3-3-x-3-x-3-3-x-x-x-x-------|-3-x-3-3-x-3-x-3-3-x-x-x-x-------|
B|-3-x-3-3-x-3-x-3-3-x-x-x-x-------|-3-x-3-3-x-3-x-3-3-x-x-x-x-------|
G|-3-x-3-3-x-3-x-3-3-x-x-x-x-------|-3-x-3-3-x-3-x-3-3-x-x-x-x-------|
D|-5-x-5-5-x-5-x-5-5-x-x-x-x-------|-5-x-5-5-x-5-x-5-5-x-x-x-x-------|
A|-5-x-5-5-x-5-x-5-5-x-x-x-x-------|-5-x-5-5-x-5-x-5-5-x-x-x-x-2-----|
E|-3-x-3-3-x-3-x-3-3-x-x-x-x-0-1-2-|-3-x-3-3-x-3-x-3-3-x-x-x-x-------|



[Verse]
Cm
   You are the flame in my heart
Cm
   You light my way in the dark
Gm                           Gm  Gm/A#
   You are the ultimate star
Cm
   You lift me from up above
Cm
   Your unconditional love
Gm                           Gm  Gm/A#
   Takes me to paradise


[Chorus]
Cm                 Cm         Cm/D
   I belong to you,   And you
Gm                    Gm     Gm/C
You belong to me too
    Cm
You make my life complete
Cm                   Cm/D  Gm        Gm   Gm/C
    You make me feel so    sweet

[Instrumental] (play like the intro)
Cm Cm Gm Gm

[Verse]
Cm
   You make me feel so divine
Cm
   Your soul and mind are entwined
Gm                           Gm  Gm/B
   Before you I was blind
Cm
   But since I've opened my eyes
Cm
   And with you there's no disguise
Gm                           Gm
   So I could open up my mind
Gm/B Cm
I    always loved you from the start
      Cm
But I could not figure out
     Gm                        Gm  Gm/B
That I had to do it everyday
     Cm
So I put away the fight
        Cm
Now I'm gonna live my life
Cm/D   Gm                        Gm  Gm/B
Giving you the most in every way     Oh

[Chorus]
Cm                 Cm                  Cm/D
   I belong to you,   And you, and you
Gm                    Gm     Gm/C
You belong to me too
    Cm
You make my life complete
Cm                   Cm/D  Gm        Gm   Gm/C
    You make me feel so    sweet          Oh
Cm                                   Cm           Cm/D
   I belong to you (I belong to you),   And you, (you)
Gm                    Gm     Gm/C
You belong to me too         Oh
    Cm
You make my life complete
Cm                   Cm/D  Gm        Gm   Gm/C
    You make me feel so    sweet

[Solo]
Cm    Cm  Cm/D
Gm    Gm  Gm/C
Cm    Cm  Cm/D
Gm    Gm  Gm/C

[Chorus]
Cm                                   Cm               Cm/D
   I belong to you (I belong to you),   And you, (and you)
Gm                    Gm     Gm/C
You belong to me too
    Cm
You make my life complete (You make my life complete)
Cm                   Cm/D  Gm        Gm   Gm/C
    You make me feel so    sweet          oh
Cm                                    Cm             Cm/D
   I belong to you (I belong to you),   And you, (and you)
Gm                    Gm     Gm/C
You belong to me too
    Cm
You make my life complete (You make my life complete)
Cm                   Cm/D  Gm        Gm   Gm/C
    You make me feel so    sweet

[Outro]
   Gm
e|--------------------------------------------|
B|--------------------------------------------|
G|--------------------------------------------|
D|--------------------------------------------|
A|-------5--5----5---------------10\----------|
E|-3-------------------0--3-------------------| x8

Legend :
s : slide down
Suggest correction
Creating personal tab
Creating personal tab
You can edit any tab online and save it as your Personal.

You can edit, replace or remove any tab part or add personal notes – all changes will be seen only by you.

Personal tabs can be accessed anytime from any device, even offline.
Learn more »
Give kudos to tab author, rate the tab!
1 2 3 4 5
comments
print report bad tab
guest
You may want to rate the tab now too:
select rating
Wanna post a correction for this tab? Suggest correction