Oops, an error
Loading. Please wait.

Ill Be Waiting bass

version 1
version 1

Whole song

Interactive

15,648 views 1 this week
no commentswrite comment
1 2 3 4 5
x 4
add to favorites
×
Save as Personal and add changes to this tab that will be seen only by you. Learn more ›
×
You can save this tab as Personal to edit and correct it or add notes. All changes will be seen only by you. Learn more »
launch autoscroll
font size
0
reset
guitar tuner
backing track
0:00
0:00
edit
Autoscroll
slow
fast
+/-
esc
set tempo
stop
Author
Difficulty
-------------------------------------------------------------------------------
			     I'll Be Waiting - Lenny Kravitz
-------------------------------------------------------------------------------

Tabbed By : Foxxbuster
e-mail: gta666@arcor.de

Tuning: EADG (Normal)

My first Tab. Mail me for corrections/errors/suggestions.

This is Tabbed by a Youtube Video. So if you want to use the timing you need the Video 
>>> http://youtube.com/watch?v=pM216yg67tw

00:34
Part1
G|----|----|----|----|----|----|----|----|
D|----|----|----|----|----|----|----|----|
A|5---|6---|----|hold|5---|6---|----|8---| x2
E|----|----|6---|note|----|----|6---|----|

Part2
G|----|------------|-------|----|-------|-------|
D|----|------------|-------|----|-------|-------|
A|6---|\10-10-10-10|8-8-8-8|6---|8-8-8-8|8-8-8-8|
E|----|------------|-------|----|-------|-------|

Chorus
G|-------|-------|-------|-------|-------|-------|-------|-------|
D|-------|-------|-------|-------|-------|-------|-------|-------|
A|5-5-5-5|6-6-6-6|-------|-------|5-5-5-5|6-6-6-6|-------|8-8-8-8| x2
E|-------|-------|6-6-6-6|6-6-6-6|-------|-------|6-6-6-6|-------|

*Break*

Part1

Part2

Chorus


2:52
G|-------|-------|-------|---------| 	The notes are correct butmaybe
D|-------|-------|-------|---------| 	it would be easier to play
A|6-6-6-6|5-5-5-5|3-3-3-3|-3--3-3h5| x3 the passage on A-String only
E|-------|-------|-------|6--6-----|

3:12
G|-----------|
D|-----------|
A|10-10-10-10|x4
E|-----------|

*Break*

2:52
G|----|----|----|-------|
D|----|----|----|-------|
A|5---|6---|----|8(1/16)| the last note is played
E|----|----|6---|-------| as a 1/16

Chorus

3:58
G|---------------------------|
D|---------------------------|
A|5-5-5-6-5-3-1-1-1-1-8-8-8-8|x2
E|---8-----------------------|(not sure if accurate)

Chorus (Only once)

And thats it.

| /  slide up
| \  slide down
| h  hammer-on
| p  pull-off
| ~  vibrato
| +  harmonic
| x  Mute note
===============================================================================

greez,
Foxxbuster
Suggest correction
Creating personal tab
Creating personal tab
You can edit any tab online and save it as your Personal.

You can edit, replace or remove any tab part or add personal notes – all changes will be seen only by you.

Personal tabs can be accessed anytime from any device, even offline.
Learn more »
comments
print report bad tab
guest
You may want to rate the tab now too:
select rating
Wanna post a correction for this tab? Suggest correction