Oops, an error
Loading. Please wait.

It Aint Over Til Its Over bass

version 2
version 2

Whole song

Interactive

238 views 1 this week
no commentswrite comment
1 2 3 4 5
2 more votes to show rating
add to favorites
×
Save as Personal and add changes to this tab that will be seen only by you. Learn more ›
×
You can save this tab as Personal to edit and correct it or add notes. All changes will be seen only by you. Learn more »
launch autoscroll
font size
0
reset
guitar tuner
edit
Autoscroll
slow
fast
+/-
esc
set tempo
stop
Author
Difficulty
Lenny Kravitz - It Ain't Over 'Til It's Over

Intro
G|--------------------------------|--------------------------------|
D|--------------------------------|--------------------------------|
A|4-------------4-----4-----------|4-------------4-----4-----------|
E|--------------------------0-4-6-|--------------------------0-4-6-|
  ^       ^       ^       ^        ^       ^       ^       ^  

G|--------------------------------|--------------------------------|
D|--------------------------------|--------------------------------|
A|4-------------4---0-4-4-6-4-----|--------------------------------|
E|----------------------------6\\-|2---2---------5---5---5-4---4h5-|
  ^       ^       ^       ^        ^       ^       ^       ^  

G|--------------------------------|--------------------------------|
D|--------------------------------|--------------------------------|
A|4---4---------4-----4-----------|4-------------4-----4-----------|
E|--------------------------0-4-6-|--------------------------0-4-6-|
  ^       ^       ^       ^        ^       ^       ^       ^  

G|--------------------------------|--------------------------------|
D|--------------------------------|--------------------------------|
A|4---4---------4---0-4-4-6-4-----|--------------------------------|
E|----------------------------6\\-|2---2---------5---5---5-4---4h5-|
  ^       ^       ^       ^        ^       ^       ^       ^  

Verse 1
G|--------------------------------|--------------------------------|
D|--------------------------------|--------------------------------|
A|4---4---------4-----4-----0-4-0-|3-------------3-----3-----0-3-0-|
E|--------------------------------|--------------------------------|
  ^       ^       ^       ^        ^       ^       ^       ^  

G|--------------------------------|--------------------------------|
D|--------------------------------|--------------------------------|
A|2---2---------2---0-2-2-4-2-----|--------------------------------|
E|----------------------------4\\-|2---2---------2---2---2/4---4h5-|
  ^       ^       ^       ^        ^       ^       ^       ^  

G|--------------------------------|--------------------------------|
D|--------------------------------|--------------------------------|
A|4---4---------4-----4-----0-4-0-|3-------------3-----3-----0-3-0-|
E|--------------------------------|--------------------------------|
  ^       ^       ^       ^        ^       ^       ^       ^  

G|--------------------------------|--------------------------------|
D|--------------------------------|--------------------------------|
A|2---2---------2---0-2-2-4-2-----|--------------------------------|
E|----------------------------4\\-|2---2---------2---2---2/4---4h5-|
  ^       ^       ^       ^        ^       ^       ^       ^  

Chorus
G|--------------------------------|--------------------------------|
D|--------------------------------|--------------------------------|
A|4---4---------4-----4-----------|4---4---------4-----4-----------|
E|--------------------------0-4-6-|--------------------------0-4-6-|
  ^       ^       ^       ^        ^       ^       ^       ^  

G|--------------------------------|--------------------------------|
D|--------------------------------|--------------------------------|
A|4---4---------4---0-4-4-6-4-----|--------------------------------|
E|----------------------------6\\-|2---2---------5---5---5-4---4h5-|
  ^       ^       ^       ^        ^       ^       ^       ^  

G|--------------------------------|--------------------------------|
D|--------------------------------|--------------------------------|
A|4---4---------4-----4-----------|4-------------4-----4-----------|
E|--------------------------0-4-6-|--------------------------0-4-6-|
  ^       ^       ^       ^        ^       ^       ^       ^  

G|--------------------------------|--------------------------------|
D|--------------------------------|--------------------------------|
A|4---4---------4---0-4-4-6-4-----|--------------------------------|
E|----------------------------6\\-|2---2---------5---5---5-4---4h5-|
  ^       ^       ^       ^        ^       ^       ^       ^  

Verse 2
G|--------------------------------|--------------------------------|
D|--------------------------------|--------------------------------|
A|4---4---------4-----4-----0-4-0-|3-------------3-----3-----0-3-0-|
E|--------------------------------|--------------------------------|
  ^       ^       ^       ^        ^       ^       ^       ^  

G|--------------------------------|--------------------------------|
D|--------------------------------|--------------------------------|
A|2---2---------2---0-2-2-4-2-----|--------------------------------|
E|----------------------------4\\-|2---2---------2---2---2/4---4h5-|
  ^       ^       ^       ^        ^       ^       ^       ^  

G|--------------------------------|--------------------------------|
D|------------------6-6-6-6-------|------------------6-6-6-6-------|
A|4---4---------4-------------4---|3---3---------3-------------3---|
E|--------------------------------|--------------------------------|
  ^       ^       ^       ^        ^       ^       ^       ^  

G|--------------------------------|--------------------------------|
D|--------------------------------|--------------------------------|
A|2---2---------2---0-2-2-4-2-----|--------------------------------|
E|----------------------------4\\-|2---2---------2---2---2/4---4h5-|
  ^       ^       ^       ^        ^       ^       ^       ^  

Chorus
G|--------------------------------|--------------------------------|
D|--------------------------------|--------------------------------|
A|4---4---------4-----4-----------|4---4---------4-----4-----------|
E|--------------------------0-4-6-|--------------------------0-4-6-|
  ^       ^       ^       ^        ^       ^       ^       ^  

G|--------------------------------|--------------------------------|
D|--------------------------------|--------------------------------|
A|4---4---------4---0-4-4-6-4-----|--------------------------------|
E|----------------------------6\\-|2---2---------5---5---5-4---4h5-|
  ^       ^       ^       ^        ^       ^       ^       ^  

G|--------------------------------|--------------------------------|
D|--------------------------------|--------------------------------|
A|4---4---------4-----4-----------|4---4---------4-----4-----------|
E|--------------------------0-4-6-|--------------------------0-4-6-|
  ^       ^       ^       ^        ^       ^       ^       ^  

G|--------------------------------|--------------------------------|
D|--------------------------------|--------------------------------|
A|4---4---------4---0-4-4-6-4-----|--------------------------------|
E|----------------------------6\\-|2---2---------5---5---5-4---4h5-|
  ^       ^       ^       ^        ^       ^       ^       ^  

Bridge/Solo
G|--------------------------------|--------------------------------|
D|--------------------------------|--------------------------------|
A|--------------------------------|--------------------------------|
E|5---5---------5---5---5---0-5-5-|7---7---------7---7---7----7\\-|
  ^       ^       ^       ^        ^       ^       ^       ^  

G|--------------------------------|--------------------------------|
D|--------------------------------|--------------------------------|
A|--------------------------------|--------------------------------|
E|2---2---------2---2---2---0-2-2-|4---4---------4---4---4-2---4---|
  ^       ^       ^       ^        ^       ^       ^       ^  

G|--------------------------------|--------------------------------|
D|------------------7-7-7-7-------|------------------9-9-9-9-------|
A|--------4-5---7-----------------|------6---7---9-----------------|
E|5---5-----------------------5---|7---7-----------------------7\\-|
  ^       ^       ^       ^        ^       ^       ^       ^  

G|--------------------------------|--------------------------------|
D|--------------------------------|--------------------------------|
A|--------------------------------|--------------------------------|
E|2---2---------2---2---2---0-2-2-|4---4---4---4---4---4---4---4---|
  ^       ^       ^       ^        ^       ^       ^       ^  

G|--------------------------------|
D|--------------------------------|
A|2/14----14\\----0-2\\---14\\\\\\|
E|--------------0-----------------|
  ^       ^       ^       ^       


=== 7 bars' rest ===



G|----------------//8---6---------|
D|------------------------8-6-6-6-|
A|--------------------------------|
E|--------------------------------|
  ^       ^       ^       ^        

Chorus
G|------6-------------------------|------6-------------------------|
D|--------------------------------|--------------------------------|
A|4-------------4-----4-----------|4-------------4-----4-----------|
E|--------------------------0-4-6-|--------------------------0-4-6-|
  ^       ^       ^       ^        ^       ^       ^       ^  

G|------6-------------------------|--------------------------------|
D|--------------------------------|--------------------------------|
A|4-------------4---0-4-4-6-4-----|--------------------------------|
E|----------------------------6\\-|2---2---------5---5---5-4---4h5-|
  ^       ^       ^       ^        ^       ^       ^       ^  

G|------------------------8p6-----|--------------------------------|
D|----------3---4---5---6-----8p6-|--------------------------------|
A|4---4---------------------------|4---4---------4---0-4-4-6-4-----|
E|--------------------------------|----------------------------6---|
  ^       ^       ^       ^        ^       ^       ^       ^  

G|--------------------------------|--------------------------------|
D|--------------------------------|--------------------------------|
A|4---4---------4-----------------|--------------------------------|
E|------------------1---2---3h4---|2---2---------5---5---5-4---4h5-|
  ^       ^       ^       ^        ^       ^       ^       ^  

G|--------------------------------|--------------------------------|
D|--------------------------------|--------------------------------|
A|4---4---------4-----4-----------|4-------------4-----4-----------|
E|--------------------------0-4-6-|--------------------------0-4-6-|
  ^       ^       ^       ^        ^       ^       ^       ^  

G|--------------------------------|--------------------------------|
D|--------------------------------|--------------------------------|
A|4---4---------4---0-4-4-6-4-----|--------------------------------|
E|----------------------------6\\-|2---2-------2-5---5---5-4---4h5-|
  ^       ^       ^       ^        ^       ^       ^       ^  

G|------------------------8p6-----|--------------------------------|
D|----------3---4---5---6-----8p6-|--------------------------------|
A|4---4---------------------------|4---4---------4---0-4-4-6-4-----|
E|--------------------------------|----------------------------6---|
  ^       ^       ^       ^        ^       ^       ^       ^  

G|--------------------------------|--------------------------------|
D|--------------------------------|--------------------------------|
A|4---4---------4-----------------|----------0-1-2---2---2---------|
E|------------------1---2---3h4---|2---2-------------------4---4h5-|
  ^       ^       ^       ^        ^       ^       ^       ^  

G|--------------------------------|------6-------------------------|
D|--------------------------------|--------------------------------|
A|4---4---------4-----4-----------|4-------------4-----4-----------|
E|--------------------------0-4-6-|--------------------------0-4-6-|
  ^       ^       ^       ^        ^       ^       ^       ^  

G|--------------------------------|--------------------------------|
D|--------------------------------|--------------------------------|
A|4---4---------4---0-4-4-6-4-----|----------0-1-2---2---2---------|
E|----------------------------6\\-|2---2-------------------4---4h5-|
  ^       ^       ^       ^        ^       ^       ^       ^  


G|--------------------------------|------6-------------------------|
D|--------------------------------|--------------------------------|
A|4---4---------4-----4-----------|4-------------4-----4-----------|
E|--------------------------0-4-6-|--------------------------0-4-6-|
  ^       ^       ^       ^        ^       ^       ^       ^  

(Fade out)

            
            
Suggest correction
Creating personal tab
Creating personal tab
You can edit any tab online and save it as your Personal.

You can edit, replace or remove any tab part or add personal notes – all changes will be seen only by you.

Personal tabs can be accessed anytime from any device, even offline.
Learn more »
Give kudos to tab author, rate the tab!
1 2 3 4 5
comments
print report bad tab
guest
You may want to rate the tab now too:
select rating
Wanna post a correction for this tab? Suggest correction