Oops, an error
Loading. Please wait.

Stillness Of Heart tab

version 1
version 1

Whole song

Interactive

13,274 views 6 this week
1 commentread comment
1 2 3 4 5
x 4
add to favorites
×
Save as Personal and add changes to this tab that will be seen only by you. Learn more ›
×
You can save this tab as Personal to edit and correct it or add notes. All changes will be seen only by you. Learn more »
launch autoscroll
font size
0
reset
how to read this tab
guitar tuner
edit
Autoscroll
slow
fast
+/-
esc
set tempo
stop
Author
STILLNESS OF HEART by Lenny Kravitz.-

INTRO: 

  G
|------------------------|
|------------------------|
|------------------------| -> *4
|-8h10-8h10^-8----4h5^~~ |
|--------------10--------|
|------------------------|

VERSE:

    G
I'm out here on the street 
There's no one left to meet
The things that were so sweet
No longer move my feet
             F
But I keep trying
            D#
I keep on trying

CHORUS: (An acoustic guitar strum normal chords)

A#5             F5
    All that I want is
                 C5
  Stillness of heart
             D#5  A#5
  So I can start
               F5
   To find my way
              C5
  Out of the dark
                  D#5~
  And into your heart

(Intro Riff*2)


w/VERSE:

I got more than I can eat
A life that can't be beat
Yet still I feel this heat
I'm feeling incomplete
What am I buying?
My soul is crying

(CHORUS *2)

BRIDGE: (An acoustic guitar strum normal chords)

             C5
Where's the love?
                       D#5
What is this world we live in?
             C5
Where's the love?
                      D#5
We've got to keep on giving
             C5
Where's the love?
                     D#5
What happened to forgiving?
   F5
Anyone?

SOLO: G (I'm working on it)

CHORUS

&&&&&&&&&&&&&&&&&&&&&&&&&

CHORDS:

    G   F   D#     A#5  F5  C5 D#5      A#  C
|---3---1---6---|-------------------|---1---0---|---------------------|
|---3---1---8---|-------------------|---3---1---|-- Simbols used: ----|
|---4---2---8---|-----------5---8---|---3---0---|--8h10 -> Hammer on -|
|---5---3---8---|---8---3---5---8---|---3---2---|--5~~ -> Let ring ---|
|---5---3---6---|---8---3---3---6---|---1---3---|--10^ -> Bend up ----|
|---3---1---x---|---6---1-----------|---1---x---|-- x -> Don't play --|


&&&&&&&&&&&&&&&&&&&&&&&&&

Questions? Comments? All welcome at my mail: heroedeleyend@hotmail.com 
I would like if anyone got the solo send it 2 me Plz.
Suggest correction
Creating personal tab
Creating personal tab
You can edit any tab online and save it as your Personal.

You can edit, replace or remove any tab part or add personal notes – all changes will be seen only by you.

Personal tabs can be accessed anytime from any device, even offline.
Learn more »
comments
print report bad tab
1 comment total.
0 reply
Bustun 10 May 14, 2002 08:00 PM

|------------------------|
|------------------------|
|------------------------| -> *4
|-8h10-8h10^-8-----------|
|--------------10---8h10~|
|------------------------|
is the intro

guest
You may want to rate the tab now too:
select rating
Wanna post a correction for this tab? Suggest correction