Oops, an error
Loading. Please wait.

Superlove Bass Tab

version 1
version 1

Whole song

Interactive

25 views 1 this week
no commentswrite comment
1 2 3 4 5
3 more votes to show rating
add to favorites
launch autoscroll
font size
0
reset
guitar tuner
Autoscroll
slow
fast
+/-
esc
set tempo
stop
Help us to improve Ultimate-Guitar.com Take our survey!
×
Author
Difficulty
intermediate
Artist : Lenny Kravitz
Album : Black And White America
Song : Superlove



[Main Riff] x22

      P               P
G|----10--------------9-----------|--------------------------------|
D|s----------------s--------------|--------------------------------|
A|8---------------/7--------------|--------------------------------|
E|------------------------------3-|5-5-3-5r------3-5-5-3-5r--------|
  1   +   2   +   3   +   4   +    1   +   2   +   3   +   4   +

[Solo] x1 (at 1:37)
  Use wha
G|----9-------5---7p5-----5---7--/|7-------5-----------------------|
D|--------------------7-----------|----------------7-------5-------|
A|--------------------------------|--------------------------------|
E|--------------------------------|--------------------------------|
  1   +   2   +   3   +   4   +    1   +   2   +   3   +   4   +


[Main Riff] (until the end)

      P               P
G|----10--------------9-----------|--------------------------------|
D|s----------------s--------------|--------------------------------|
A|8---------------/7--------------|--------------------------------|
E|------------------------------3-|5-5-3-5r------3-5-5-3-5r--------|
  1   +   2   +   3   +   4   +    1   +   2   +   3   +   4   +

[Alternate Riff]
play it somtimes towards the end inbetween the main riff
      P               P
G|----10--------------9-----------|--------------------------------|
D|s----------------s--------------|--------------------------------|
A|8---------------/7--------------|--------------------------------|
E|------------------------------3-|5-5-3-5r------3-5-5-3-5r--5-7-8-|
  1   +   2   +   3   +   4   +    1   +   2   +   3   +   4   +

G|--------------------------------|--------------------------------|
D|--------------------------------|--------------------------------|
A|5---5r------5-6-7---7r----------|--------------------------------|
E|----------8-------------------3-|5-5-3-5r------3-5-5-3-5r--------|
  1   +   2   +   3   +   4   +   1   +   2   +   3   +   4   +   


************************************

| p   Pull-off
| /   Slide 
| s   Slap
| P   Pop

************************************
Suggest correction
Give kudos to tab author, rate the tab!
1 2 3 4 5
comments
print report bad tab
guest
You may want to rate the tab now too:
select rating
Wanna post a correction for this tab? Suggest correction