Oops, an error
Loading. Please wait.

The Chamber Bass Tab

24,126 views 63 this week
no commentswrite comment
1 2 3 4 5
excellent!
x 7
add to favorites
launch autoscroll
font size
0
reset
guitar tuner
Autoscroll
slow
fast
+/-
esc
set tempo
stop
Help us to improve Ultimate-Guitar.com Take our survey!
×
Author
Difficulty
novice
BASS TAB: LENNY KRAVITZ - THE CHAMBER.. HOPE THEY SERVE..

G|----------------------------------------------------------------------------------------------------------|
D|----------------------------------------------------------------------------------------------------------|
A|---------------------3-------------------------3-----8-8---8-8---8-8---8-10-8--0-3-3---3-3---3-3---3-5----|
E|-5-5-3-5-5-3-5-5-3-5---0-3-5-5-3-5-5-3-5-5-3-5---0-3-----8-----8-----8---------------3-----3-----3-----0-3| 

G|----------------------------------------------------------------------------------------------------------|
D|----------------------------------------------------------------------------------------------------------|
A|---------------------3-------------------------3-----8-8---8-8---8-8---8-10-8--0-3-3---3-3---3-3---3-5----|
E|-5-5-3-5-5-3-5-5-3-5---0-3-5-5-3-5-5-3-5-5-3-5---0-3-----8-----8-----8---------------3-----3-----3-----0-3|

G|----------------------------------------------------------------------------------------------------------|
D|----------------------------------------------------------------------------------------------------------|
A|---------------------3-------------------------3-----8-8---8-8---8-8---8-10-8--0-3-3---3-3---3-3---3-5----|
E|-5-5-3-5-5-3-5-5-3-5---0-3-5-5-3-5-5-3-5-5-3-5---0-3-----8-----8-----8---------------3-----3-----3-----0-3|

G|----------------------------------------------------------------------------------------------------------|
D|----------------------------------------------------------------------------------------------------------|
A|---------------------3-------------------------3-----8-8---8-8---8-8---8-10-8--0-3-3---3-3---3-3---3-5----|
E|-5-5-3-5-5-3-5-5-3-5---0-3-5-5-3-5-5-3-5-5-3-5---0-3-----8-----8-----8---------------3-----3-----3-----0-3|

G|----------------------------------------------------------------------------------------------------------|
D|----------------------------------------------------------------------------------------------------------|
A|---------------------3-------------------------3-----8-8---8-8---8-8---8-10-8--0-3-3---3-3---3-3---3-5----|
E|-5-5-3-5-5-3-5-5-3-5---0-3-5-5-3-5-5-3-5-5-3-5---0-3-----8-----8-----8---------------3-----3-----3-----0-3|

G|--------------------------------------------------------------------------------------------------------|
D|--------------------------------------------------------------------------------------------------------|
A|---------------------3-------------------------3-------------------------3-------------------------3----|
E|-5-5-3-5-5-3-5-5-3-5---0-3-5-5-3-5-5-3-5-5-3-5---0-3-5-5-3-5-5-3-5-5-3-5---0-3-5-5-3-5-5-3-5-5-3-5---0-3| 

G|----------------------------------------------------------------------------------------------------------|
D|----------------------------------------------------------------------------------------------------------|
A|-8-8---8-8---8-8---8-10-8-0-3-3---3-3---3-3---3-5-------------------------3-------------------------3-----|
E|-----8-----8-----8--------------3-----3-----3-----0-3-5-5-3-5-5-3-5-5-3-5---0-3-5-5-3-5-5-3-5-5-3-5---0-3-|

G|----------------------------------------------------------------------------------------------------------|
D|----------------------------------------------------------------------------------------------------------|
A|-8-8---8-8---8-8---8-10-8-0-3-3---3-3---3-3---3-5-------------------------3-------------------------3-----|
E|-----8-----8-----8--------------3-----3-----3-----0-3-5-5-3-5-5-3-5-5-3-5---0-3-5-5-3-5-5-3-5-5-3-5---0-3-|

G|----------------------------------------------------------------------------------------------------------|
D|----------------------------------------------------------------------------------------------------------|
A|-8-8---8-8---8-8---8-10-8-0-3-3---3-3---3-3---3-5-------------------------3-------------------------3-----|
E|-----8-----8-----8--------------3-----3-----3-----0-3-5-5-3-5-5-3-5-5-3-5---0-3-5-5-3-5-5-3-5-5-3-5---0-3-|

G|----------------------------------------------------------------------------------------------------------|
D|--------------------------------------------------------------------------------------3-4-5-5---5-5-------|
A|-8-8---8-----8-8---8-10-8-0-3-3---3-3---3-3---3-5-----------------8-8---8-0-2-3-3---3---------5-----5-----|
E|-----8-----8-----8--------------3-----3-----3-----0-3-5-5-3-5-5-3-----8-----------3----------------------0|

G|-----------------------------------------------------------------------------------|
D|--------------------------------------------------3-4-5--5-----5-5------5555555----|
A|-------------------8--8-----8---0--2--3--3-----3------------5-------5--------------|
E|5--5--3--5--5---3--------8------------------3--------------------------------------| BACK TO TOP.. 

AND AT 4:03 ITS ONLY:

G|----------------------------------------------------------------------------------------|
D|----------------------------------------------------------------------------------------|
A|----------------------------------3---------------------------------------3-------------|
E|-5--5--3--5--5---3--5--5---3--5-----0--3--5--5--3--5--5--3--5--5--3--5------0--3--5--5--|


END.

Suggest correction
comments
print report bad tab
guest
You may want to rate the tab now too:
select rating
Wanna post a correction for this tab? Suggest correction