Oops, an error
Loading. Please wait.

Since I Fell For You Bass Tab

16 views 3 this week
no commentswrite comment
1 2 3 4 5
3 more votes to show rating
add to favorites
launch autoscroll
font size
0
reset
guitar tuner
Autoscroll
slow
fast
+/-
esc
set tempo
stop
Help us to improve Ultimate-Guitar.com Take our survey!
×
Author
Difficulty
[Intro]: "When you just give love..."
G|-----------------------------8-----------------------------------------8-6-5-----|
D|-6-------8-------6-------8-------6----------------4----3--6--8--8-------------8--|
A|-----8-------6-------8------------------------4--------------------6-------------|
E|---------------------------------------------------------------------------------|


[Verse 1]: "You, made me leave my happy home..."
G|--------------------------------------------------------------------|
D|-6-------8-------6-------8---------------------8-----6-------8------|
A|-----8-------6-------8-------6---4---4---3--8-----6------8-------6--|
E|--------------------------------------------------------------------|


[Verse 2]: "Love brings such misery and pain..."
G|-----------------------------------------------------------5-6---6------8--13-----|
D|-6-------8-------6-------8---------------------8-----6---8---------8-6---------6--|
A|-----8-------6-------8-------6---4---4---3--8-----6-------------------------------|
E|----------------------------------------------------------------------------------|


[Bridge]: "Well it's too bad..."
G|-----------------5-----------8-13----------------------------------8--|
D|---------4---4-------8---6---------6-----------4---4-----------8------|
A|-4---4---------------------------------4---4---------------8----------|
E|-------------------------------------------------------8--------------|


[Verse 3]: "Well, I guess I'll never see the light..."
G|-----------------------------------------------------------8------------------------|
D|-6-------8-------6-------8---------------------8-----6---------------------------6--|
A|-----8-------6-------8-------6---4---4---3--8-----6------------------------6--------|
E|------------------------------------------------------------------------------------|
Suggest correction
Give kudos to tab author, rate the tab!
1 2 3 4 5
comments
print report bad tab
guest
You may want to rate the tab now too:
select rating
Wanna post a correction for this tab? Suggest correction