Oops, an error
Loading. Please wait.

Estudios Sencillos - Study No 11 Tab

1,456 views 1 this week
no commentswrite comment
1 2 3 4 5
excellent!
x 3
add to favorites
launch autoscroll
font size
0
reset
how to read this tab
guitar tuner
Tab Pro tools
  • play this tab
  • loop segment
  • change instrument
  • show fretboard
  • metronome
×
Best way to learn
"Estudios Sencillos - Study No 11"
Autoscroll
slow
fast
+/-
esc
set tempo
stop
Contributor
This is the eleventh study in Leo Brouwer's Estudios Sencillos
of which there are 20.

Paul R. Estrada - 2005
estrada@cosmic.arc.nasa.gov

Study no 11. (Estudios Sencillos)
by Leo Brouwer - Editions Max Eschig, 1983

Timing is (4/4)  
Pace is ALLEGRETTO.
Tab explanation below.


SECTION #1

    1 e & a 2 e & a 3 e & a 4 e & a     1 e & a 2 e & a 3 e & a 4 e & a       
              
E|-----------------------------------|--------------------------------0--|
B|------------------0-----------3^0--|------------------0-----------3----|
G|----------0-----0-----2^0----------|----------0-----0-----2^0----------|
D|--------4-----4-----------4--------|--------4-----4-----------4--------|
A|------4----------------------------|------4----------------------------|
E|--0--------------------------------|--0--------------------------------|

    f (deciso e ritmico)
 
    1 e & a 2 e & a 3 e & a 4 e & a     1 e & a 2 e & a 3 e & a 4 e & a       
              
E|------------------0---3/5-7--------|-----------------------------------|
B|----------0-----3-------------7----|-----------------------------------|
G|--------5-----5-----------------5/-|--7-------0-------0-------0--------|
D|------4----------------------------|--------0-------0-------0-----7^5--|
A|--0--------------------------------|------9-------7-------5------------|
E|-----------------------------------|-----------------------------------|

    1 e & a 2 e & a 3 e & a 4 e & a     1 e & a 2 e & a 3 e & a 4 e & a       
              
E|-----------------------------------|-----------------------------------|
B|------------------0-----------3^0--|------------------0-------3^5-1^0--|
G|----------0-----0-----2^0----------|----------0-----0-------0----------|
D|--------4-----4-----------4--------|--------4-----4-------4------------|
A|------4----------------------------|------4----------------------------|
E|--0--------------------------------|--0--------------------------------|

    meno f
 
    1 e & a 2 e & a 3 e & a 4 e & a     1 e & a 2 e & a 3 e & a 4 e & a       
              
E|------------------0---3/5-7--------|-----------------------------------|
B|----------0-----3-----------7------|-----------------------------------|
G|--------5-----5---------------5^7--|--7^9-----0-------0-------0--------|
D|------4----------------------------|--------0-------0-------0-----7^5--|
A|--0--------------------------------|------9-------7-------5------------|
E|-----------------------------------|-----------------------------------|

    1 e & a 2 e & a 3 e & a 4 e & a     1 e & a 2 e & a 3 e & a 4 e & a       
              
E|-----------------------------------|-----------------------------------|
B|--0---------------------------0----|-(0)--------------------------0----|
G|*---------0-------3-------6-5------|----------0-------3-------6^5------|
D|*-------0-------3-------6----------|--------0-------3-------6----------|
A|--------------1-------4------------|--------------1-------4------------|
E|------3----------------------------|------3----------------------------|
 
    1 e & a 2 e & a 3 e & a 4 e & a     1 e & a 2 e & a 3 e & a 4 e & a       
              
E|-----------------------------------|-----------------------------------|
B|-(0)-------------------------------|--------------------------1^3-3----|
G|------------------0-------2^3-3----|-(3)--------------0-----0---------*|
D|----------2-----0-------2----------|----------2-----0-----2-----------*|
A|--------2-------------3------------|--------2--------------------------|
E|------0-------3--------------------|------0-------3--------------------|
 
SECTION #2
(Legato ma in tempo)

    1 e & a 2 e & a 3 e & a 4 e & a     1 e & a 2 e & a 3 e & a 4 e & a       
              
E|----------------------3------------|------------------------------3----|
B|--------------0---------------0----|-(0)----------------------1--------|
G|*----------------------------------|-----------------------------------|
D|*---------0------------------------|------0-----------2----------------|
A|-----------------------------------|-----------------------------------|
E|--3--------------------------------|--------------3--------------------|

    mp (all sustained notes)
 
    1 e & a 2 e & a 3 e & a 4 e & a     1 e & a 2 e & a 3 e & a 4 e & a       
              
E|----------------------3------------|------------------------------3----|
B|--------------0---------------0----|-(0)----------------------1--------|
G|--------------------------2--------|----------------------------------*|
D|----------0------------------------|------0-----------0-^-2-----------*|
A|-----------------------------------|-----------------------------------|
E|--3--------------------------------|--------------3--------------------|
 
    1 e & a 2 e & a 3 e & a 4 e & a     1 e & a 2 e & a 3 e & a 4 e & a       
              
E|------------------------------3----|-(3)-------------------------------|
B|--------------1-^-0----------------|----------------------3-^-1--------|
G|----------------------0-^-2--------|-----------------------------------|
D|----------0------------------------|--------------0-^-2----------------|
A|-----------------------------------|-----------------------------------|
E|--2-^-3----------------------------|------2-^-3------------------------|
 
    1 e & a 2 e & a 3 e & a 4 e & a     1 e & a 2 e & a 3 e & a 4 e & a       
              
E|----------0------------------------|-----------------------------------|
B|----------------------3-------1----|------4-^-5-------2-^-3-------1----|
G|------0-----------0-----------0----|------0-----------0-----------0----|
D|-----------------------------------|-----------------------------------|
A|--3-----------2-----------0--------|--3-----------2-----------0--------|
E|-----------------------------------|-----------------------------------|
 
    1 e & a 2 e & a 3 e & a 4 e & a     1 e & a 2 e & a 3 e & a 4 e & a       
              
E|------------------------------3----|-(3)-------------------------------|
B|--------------1-^-0----------------|----------------------3-^-1--------|
G|----------------------0-^-2--------|-----------------------------------|
D|----------0------------------------|--------------0-^-2----------------|
A|-----------------------------------|-----------------------------------|
E|--2-^-3----------------------------|------0-^-3------------------------|
 
    1 e & a 2 e & a 3 e & a 4 e & a     1 e & a 2 e & a 3 e & a 4 e & a       
              
E|-----------------------------------|-----------------------------------|
B|--1-^-0-------1-^-0-------1-^-0----|-(0)-------------------------------|
G|-----------------------------------|-----------------------------------|
D|--2-^-0-------2-^-0-------2-^-0----|-(0)-------------------------------|
A|-----------------------------------|-----------------------------------|
E|--3-------3-----------3------------|--3-------3-------3-------3--------|
 
    1 e & a 2 e & a 3 e & a 4 e & a     1 e & a 2 e & a 3 e & a 4 e & a       
              
E|-----------------------------------|-----------------------------------|
B|--1-^-0--(0)-----------------------|-----------------------------------|
G|-----------------------------------|-----------------------------------|
D|--2-^-0--(0)-----------------------|-----------------------------------|
A|-----------------------------------|-----------------------------------|
E|--3-------3-------3-------3--------|--3-------3-------2-------2--------|


REPEAT SECTION #1
REPEAT SECTION #2 to coda

CODA (sustained notes)

    1 e & a 2 e & a 3 e & a 4 e & a     1 e & a 2 e & a 3 e & a 4 e & a       
              
E|----------------------3------------|------------------------------3----|
B|--------------0---------------0----|-(0)----------------------1--------|
G|-----------------------------------|-----------------------------------|
D|----------0------------------------|------0-----------2----------------|
A|-----------------------------------|-----------------------------------|
E|--3--------------------------------|--------------3--------------------|
 
    1 e & a 2 e & a 3 e & a 4 e & a     1 e & a 2 e & a 3 e & a 4 e & a       
              
E|-(3)-------------------------------|-----------------------------------|
B|-(1)-------------------------------|-----------------------------------|
G|-----------------------------------|-----------------------------------|
D|-(2)-------------------------------|----------2-^-0--(0)---------------|
A|-----------------------------------|-----------------------------------|
E|-(3)-------------------------------|--2-^-3----------(3)---------------|

                                        pp 

 ^  = Hammer-on or pull-off.
 /  = slide.
(#) = This is a sustained note (not to be played), aka "ghost note".
 mf,f,ff,mp,p,pp = standard notation (forcefully or softly etc.)
comments
We did not receive enough feedback on this tab! Please rate:
print report bad tab
1 2 3 4 5
I want to post or [tab]
guest
You may want to rate the tab now too:
select rating
Please do not post tabs as comments. Select "correction" instead!