Oops, an error
Loading. Please wait.

Estudios Sencillos - Study No 5 Tab

1,188 views 9 this week
no commentswrite comment
1 2 3 4 5
please rate
add to favorites
launch autoscroll
font size
0
reset
how to read this tab
guitar tuner
Autoscroll
slow
fast
+/-
esc
set tempo
stop
Help us to improve Ultimate-Guitar.com Take our survey!
×
Author
Study No 5 - Leo Brouwer (1939-)

This is the fifth study in Leo Brouwer's Estudios Sencillos
of which I believe there are 20.

Paul R. Estrada - November 2002
estrada@cosmic.arc.nasa.gov

Study no. 5 (Estudios Sencillos)
by Leo Brouwer

Timing is (2/4)  
Pace is ALLEGRETTO.
Sustain the bass notes.


   1   & a 2 e &     1   & a 2 e &     1   & a 2 e &     1   & a 2 e & 

E|-------0---------|-------1---------|-------3---------|-------0---------|
B|-----------0-----|-----------0-----|-----------0-----|-----------0-----|
G|-----0-------0---|-----2-------2---|-----1-------1---|-----0-------0---|
D|-----------------|-----------------|-----------------|-----------------|
A|-3---------------|-3---------------|-3---------------|-3---------------|
E|-----------------|-----------------|-----------------|-----------------|
   p


   1   & a 2 e & a   1   & a 2 e & a   1   & a 2 e & a   1   & a 2 e & a 

E|-----------------|-----------------|-----------------|-----------------|
B|-----------------|-----0-----------|-----------------|-----0-----------|
G|-----0-------2-2-|-------3-----3-3-|-----0-------2-2-|-------3-----3-3-|
D|-------0---------|-----------0-----|-------0---------|-----------0-----|
A|-3---------------|-----------------|-3---------------|-----------------|
E|-----------1-----|-3---------------|-----------1-----|-3---------------|


   1   &   2   & a   1   & a 2 e &     1   & a 2 e & a   1   & a 2 e & 

E|-----------------|-------3---------|-----------------|-------3---------|
B|-----------------|-----------0-----|-----2-------0-0-|-----------0-----|
G|-3---3---3---3-3-|-----3-------3---|-------0---------|-----3-------3---|
D|-----------------|-1---------------|-----------3-----|-1---------------|
A|-----------------|-----------------|-1---------------|-----------------|
E|-----------------|-----------------|-----------------|-----------------|
   |   f
  sustain this note an extra 16th...


   1   & a 2 e & a   1   & a 2 e & a   1   & a 2 e & a   1   &   2 e & 

E|-----------------|-----------------|-----------------|-----------------|
B|-----2-------0-0-|-----0-------2---|-----0-------2---|-----0-----0-----|
G|-------0---------|-------3-------3-|-------3-------3-|-----3-----3-----|
D|-----------3-----|-1---------0-----|-1---------0-----|-1---------------|
A|-1---------------|-----------------|-----------------|-----------------|
E|-----------------|-----------------|-----------------|-----------------|


   1   & a 2 e &      

E|-----------------|
B|-----0-0---0-0---|
G|-----3-3---3-0---|
D|-3---------------|
A|-----------------|
E|-----------------|


   1   & a 2 e &     1   & a 2 e &     1   & a 2 e &     1   & a 2 e & 

E|-------0---------|-------1---------|-------3---------|-------0---------|
B|-----------0-----|-----------0-----|-----------0-----|-----------0-----|
G|-----0-------0---|-----2-------2---|-----1-------1---|-----0-------0---|
D|-----------------|-----------------|-----------------|-----------------|
A|-3---------------|-3---------------|-3---------------|-3---------------|
E|-----------------|-----------------|-----------------|-----------------|
   p


   1   & a 2 e & a   1   &   2   &     1   & a 2 e & a   1   &   2   &  

E|-----------------|-----------------|-----------------|-----------------|
B|-----------------|-----0-----------|-----------------|-----0---0-------|
G|-----0-------2-2-|-----3-----------|-----0-------2-2-|-----3---3-------|
D|-------0---------|-----------------|-------0---------|-----------------|
A|-3---------------|-----------------|-3---------------|-----------------|
E|-----------1-----|-3---------------|-----------1-----|-3---------------|


   1   & a 2 e & a   1   & a 2 e &      

E|-----------------|-----------------|
B|-----------------|-----0-0---0-0---|
G|-----0-------2-2-|-----3-3---3-0---|
D|-------0---------|-----------------|
A|-3---------------|-----------------|
E|-----------1-----|-3---------------|
   p



 mf,f,ff,mp,p,pp = standard notation (forcefully or softly etc.)
Suggest correction
Give kudos to tab author, rate the tab!
1 2 3 4 5
comments
print report bad tab
guest
You may want to rate the tab now too:
select rating
Wanna post a correction for this tab? Suggest correction