Oops, an error
Loading. Please wait.

Estudios Sencillos - Study No 6 Tab

5,588 views 33 this week
no commentswrite comment
1 2 3 4 5
x 4
add to favorites
launch autoscroll
font size
0
reset
how to read this tab
guitar tuner
Autoscroll
slow
fast
+/-
esc
set tempo
stop
Help us to improve Ultimate-Guitar.com Take our survey!
×
Author
Estudio 6
~~~~~~~~~
By: Leo Brouwer (1939-)
Transcribed from: "Portrait" by Kavi
Transcribed and tabbed by: John Kean

Standard tuning.
6/4 time, changing to 4/4 near the end.
Allegro (MM = 138).


6/4, . , . , . , . , . , .   , . , . , . , . , . , .
||---0-----0---------------|---0-----0---------------|
||-----4-----4-----4-------|-----4-----4-----4-------|
||-------6-----6-----6-----|-------6-----6-----6-----|
||---------------7-----7---|---------------7-----7---|
||-0---------------------0-|-0---------------------0-|
||-------------------------|-------------------------|


  , . , . , . , . , . , .   , . , . , . , . , . , .
|---0-----0---------------|---0-----0---------------|
|-----4-----4-----4-------|-----4-----4-----4-------|
|-------6-----6-----6-----|-------6-----6-----6-----|
|---------------5-----5---|---------------5-----5---|
|-0---------------------0-|-0---------------------0-|
|-------------------------|-------------------------|


  , . , . , . , . , . , .   , . , . , . , . , . , .
|---0-----0---------------|---0-----0---------------|
|-----4-----4-----4-------|-----4-----4-----4-------|
|-------5-----5-----5-----|-------5-----5-----5-----|
|---------------4-----4---|---------------4-----4---|
|-0---------------------0-|-0---------------------0-|
|-------------------------|-------------------------|


  , . , . , . , . , . , .   , . , . , . , . , . , .
|---0-----0---------------|---0-----0---------------|
|-----3-----3-----3-------|-----3-----3-----3-------|
|-------4-----4-----4-----|-------4-----4-----4-----|
|---------------3-----3---|---------------3-----3---|
|-0---------------------0-|-0---------------------0-|
|-------------------------|-------------------------|


  , . , . , . , . , . , .   , . , . , . , . , . , .
|---0-----0---------------|---0-----0---------------|
|-----2-----2-----2-------|-----2-----2-----2-------|
|-------4-----4-----4-----|-------4-----4-----4-----|
|---------------2-----2---|---------------2-----2---|
|-0---------------------0-|-0---------------------0-|
|-------------------------|-------------------------|


  , . , . , . , . , . , .   , . , . , . , . , . , .
|---0-----0---------------|---0-----0---------------|
|-----1-----1-----1-------|-----1-----1-----1-------|
|-------4-----4-----4-----|-------4-----4-----4-----|
|---------------2-----2---|---------------2-----2---|
|-0---------------------0-|-0---------------------0-|
|-------------------------|-------------------------|


  , . , . , . , . , . , .   , . , . , . , . , . , .
|---0-----0---------------|---0-----0---------------|
|-----0-----0-----0-------|-----0-----0-----0-------|
|-------5-----5-----5-----|-------5-----5-----5-----|
|---------------2-----2---|---------------2-----2---|
|-------------------------|-------------------------|
|-3---------------------3-|-3---------------------3-|


  , . , . , . , . , . , .   , . , . , . , . , . , .
|---0-----0---------------|---0-----0---------------|
|-----0-----0-----0-------|-----0-----0-----0-------|
|-------2-----2-----2-----|-------2-----2-----2-----|
|---------------2-----2---|---------------2-----2---|
|-------------------------|-------------------------|
|-2---------------------2-|-2---------------------2-|


  , . , . , . , . , . , .   , . , . , . , . , . , .
|---0-----0---------------|---0-----0---------------|
|-----0-----0-----0-------|-----0-----0-----0-------|
|-------2-----2-----2-----|-------2-----2-----2-----|
|---------------0-----0---|---------------0-----0---|
|-------------------------|-------------------------|
|-1---------------------1-|-1---------------------1-|


  , . , . , . , . , . , .   , . , . , . , . , . , .
|---0-----0---------------|---0-----0---------------|
|-----0-----0-----0-------|-----0-----0-----0-------|
|-------2-----2-----2-----|-------2-----2-----2-----|
|---------------2-----2---|---------------2-----2---|
|-------------------------|-------------------------|
|-0---------------------0-|-0---------------------0-|


  , . , . , . , . , . , .   , . , . , . , . , . , .4/4
|---0-----0---------------|---0-----0---------------||
|-----0-----0-----0-------|-----0-----0-----0-------||
|-------1-----1-----1-----|-------1-----1-----1-----||
|---------------2-----2---|---------------2-----2---||
|-------------------------|-------------------------||
|-0---------------------0-|-0---------------------0-||


4/4,  .  ,  .  ,  .  ,  .    ,  .  ,  .  ,  .  ,  .
||----0--------------------|----0--------------------|
||-------0--------0--------|-------0--------0--------|
||---------10-------10-----|---------10-------10-----|
||------------12-------12--|------------12-------12--|
||-0-----------------------|-0-----------------------|
||-------------------------|-------------------------|


  ,  .  ,  .  ,  .  ,  .    ,  .  ,  .  ,  .  ,  .
|----0--------------------|----0--------------------|
|-------0--------0--------|-------0--------0--------|
|---------11-------11-----|---------11-------11-----|
|------------11-------11--|------------11-------11--|
|-0-----------------------|-0-----------------------|
|-------------------------|-------------------------|


  ,  .  ,  .  ,  .  ,  .    ,  .  ,  .  ,  .  ,  .
|----0--------------------|----0--------------------|
|-------0--------0--------|-------0--------0--------|
|----------7--------7-----|----------7--------7-----|
|-------------4--------4--|-------------4--------4--|
|-0-----------------------|-0-----------------------|
|-------------------------|-------------------------|


  ,  .  ,  .  ,  .  ,  .    ,  .  ,  .  ,  .  ,  .
|----0--------------------|----0--------------------|
|-------0--------0--------|-------0--------0--------|
|----------6--------6-----|----------6--------6-----|
|-------------6--------6--|-------------6--------6--|
|-0-----------------------|-0-----------------------|
|-------------------------|-------------------------|


  , . , . , . , .   , . , . , . , .   , . , . , . , .
|---0-------------|---0-------------|-----------------||
|-----3-----3-----|-----2-----2-----|-----------------||
|-------4-----4---|-------4-----4---|-----------------||
|---------3-----3-|---------2-----2-|-----------------||
|-0---------------|-0---------------|-0---------------||
|-----------------|-----------------|-----------------||
Suggest correction
comments
print report bad tab
guest
You may want to rate the tab now too:
select rating
Wanna post a correction for this tab? Suggest correction