Oops, an error
Loading. Please wait.

Estudios Sencillos - Study No 7 Tab

862 views 1 this week
no commentswrite comment
1 2 3 4 5
please rate
add to favorites
launch autoscroll
font size
0
reset
how to read this tab
guitar tuner
Autoscroll
slow
fast
+/-
esc
set tempo
stop
Help us to improve Ultimate-Guitar.com Take our survey!
×
Author
Study No 7 - Leo Brouwer (1939-)

This is the seventh study in Leo Brouwer's Estudios Sencillos
of which I believe there are 20.

Paul R. Estrada - November 2002
estrada@cosmic.arc.nasa.gov

Study no. 7 (Estudios Sencillos)
by Leo Brouwer

Timing is (12/8) and (9/8)
Pace is LO MAS RAPIDO POSIBLE.


   1  2  3  4  5  6  7  8  9 10 11 12   1  2  3  4  5  6  7  8  9 10 11 12

E|------------------------------------|------------------------------------|
B|----------0-^3--3--3-^6--6----------|----------0-^3--3--3-^6--6----------|
G|-------0----------------------------|-------0----------------------------|
D|----1-------------------------------|----1-------------------------------|
A|-3----------------------------------|-3----------------------------------|
E|------------------------------------|------------------------------------|

   
   1  2  3  4  5  6  7  8  9    1  2  3  4  5  6  7  8  9

E|---------------------------|----------------------------|
B|----------0-^3--3--3-^6--6-|--6-^3--3--3-^0--0----------|
G|-------0-------------------|--------------------4-^0--0-|
D|----1----------------------|----------------------------|
A|-3-------------------------|----------------------------|
E|---------------------------|----------------------------|

   
   1  2  3  4  5  6  7  8  9    1  2  3  4  5  6  7  8  9

E|---------------------------|-----------7----------------|
B|---------------------------|----------------------------|
G|---------------------------|-----------5----------------|
D|-4-^0--0-------------------|----------------------------|
A|----------4-^0--0----------|----------------------------|
E|-------------------4-^0--0-|--0-------------------------|
    ff       pp

 
   1  2  3  4  5  6  7  8  9    1  2  3  4  5  6  7  8  9

E|---------------------------|----------------------------|
B|---------------------------|--6-^3--3--3-^0--0----------|
G|---------------------------|--------------------4-^0--0-|
D|---------------------------|----------------------------|
A|---------------------------|----------------------------|
E|---------------------------|----------------------------|

   
   1  2  3  4  5  6  7  8  9    1  2  3  4  5  6  7  8  9

E|---------------------------|-----------7----------------|
B|---------------------------|----------------------------|
G|---------------------------|-----------5----------------|
D|-4-^0--0-------------------|----------------------------|
A|----------4-^0--0----------|----------------------------|
E|-------------------4-^0--0-|--0-------------------------|
    ff       pp

 
   1  2  3  4  5  6  7  8  9    1  2  3  4  5  6  7  8  9

E|---------------------------|----------------------------|
B|---------------------------|----------------------------|
G|---------------------------|----------------------------|
D|---------------------------|----------------------------|
A|---------------------------|----------------------------|
E|---------------------------|--4-^5--5--5-^6--6--6-^7--7-|
    f
 

   1  2  3  4  5  6  7  8  9    1  2  3  4  5  6  7  8  9

E|---------------------------|--4-^5--5--5-^6--6--6-^7--7-|
B|---------------------------|----------------------------|
G|---------------------------|----------------------------|
D|---------------------------|----------------------------|
A|---------------------------|----------------------------|
E|-7-^0--0--7-^0--0--7-^0--0-|----------------------------|
    pp 
  

   1  2  3  4  5  6  7  8  9   

E|-4-^5--5--5-^6--6--6-^7--7-|
B|---------------------------|
G|---------------------------|
D|---------------------------|
A|---------------------------|
E|---------------------------|
   

   1  2  3  4  5  6  7  8  9 10 11 12   1  2  3  4  5  6  7  8  9 10 11 12

E|-7-^4--4--4-^0--0-------------------|------------------------------------|
B|-------------------7-^4--4--4-^0--0-|------------------------------------|
G|------------------------------------|-7-^4--4--4-^0--0-------------------|
D|------------------------------------|-------------------7-^4--4--4-^0--0-|
A|------------------------------------|------------------------------------|
E|------------------------------------|------------------------------------|
   

   1  2  3  4  5  6  7  8  9 10 11 12   1  2  3  4  5  6  7  8  9 10 11 12

E|------------------------------------|----------7-------------------------|
B|------------------------------------|------------------------------------|
G|------------------------------------|----------5-------------------------|
D|------------------------------------|------------------------------------|
A|-7-^4--4--4-^0--0-------------------|------------------------------------|
E|-------------------7-^4--4--4-^0--0-|-0----------------------------------|
            ff       pp
 

   1  2  3  4  5  6  7  8  9 10 11 12   1  2  3  4  5  6  7  8  9 10 11 12

E|----------7-------------------------|------------------------------------|
B|------------------------------------|------------------------------------|
G|----------5-------------------------|------------------------------------|
D|------------------------------------|------------------------------------|
A|------------------------------------|------------------------------------|
E|-0----------------------------------|------------------------------------|
   ff       pp
   

   1  2  3  4  5  6  7  8  9 10 11 12   1  2  3  4  5  6  7  8  9 10 11 12

E|------------------------------------|------------------------------------|
B|----------0-^3--3--3-^6--6----------|----------0-^3--3--3-^6--6----------|
G|-------0----------------------------|-------0----------------------------|
D|----1-------------------------------|----1-------------------------------|
A|-3----------------------------------|-3----------------------------------|
E|------------------------------------|------------------------------------|
   mf       p
 

   1  2  3  4  5  6  7  8  9 10 11 12   1  2  3  4  5  6  7  8  9 10 11 12

E|------------------------------------|------------------------------------|
B|-------------------3-^6--6----------|-------------------3-^6--6----------|
G|------------------------------------|------------------------------------|
D|------------------------------------|------------------------------------|
A|------------------------------------|------------------------------------|
E|------------------------------------|------------------------------------|
       pp       pp
 

   1  2  3  4  5  6  7  8  9 10 11 12   1  2  3  4  5  6  7  8  9 10 11 12

E|------------------------------------|----------7-------------------------|
B|------------------------------------|------------------------------------|
G|------------------------------------|----------5-------------------------|
D|------------------------------------|------------------------------------|
A|------------------------------------|------------------------------------|
E|----------------------------4-^0--0-|-0----------------------------------|
  ff        ff       pp 



 mf,f,ff,mp,p,pp = standard notation (forcefully or softly etc.)
Suggest correction
Give kudos to tab author, rate the tab!
1 2 3 4 5
comments
print report bad tab
guest
You may want to rate the tab now too:
select rating
Wanna post a correction for this tab? Suggest correction