Oops, an error
Loading. Please wait.

Guajira Criolla Tab

749 views 6 this week
no commentswrite comment
1 2 3 4 5
excellent!
x 3
add to favorites
launch autoscroll
font size
0
reset
how to read this tab
guitar tuner
Autoscroll
slow
fast
+/-
esc
set tempo
stop
Help us to improve Ultimate-Guitar.com Take our survey!
×
Author
Tabbers playing skills
intermediate +
|--------------------|--------5-----------|--------------------|
|--------------3-----|-----5--------------|-----------------3--|
|-----------2--------|--6-----------------|--------------2-----|
|--------0-----------|-----------7--------|--------0--3--------|
|-----0--------------|--------------0-----|-----0--------------|
|--0-----------------|--------------------|--0-----------------|
pizzicato......................................................


|--------------------|--------5--9--12-17-|--------------------|
|-----------------3--|-----5--------------|--------------3-----|
|--------------2-----|--6-----------------|-----------2--------|
|--------0--3--------|--------------------|--------0-----------|
|-----0--------------|--------------------|-----0--------------|
|--0-----------------|--------------------|--0-----------------|
pizz...........................................................


|--------5-----------|--------------------|--------5--9--12-17-|
|-----5--------------|-----------------3--|-----5--------------|
|--6-----------------|--------------2-----|--6-----------------|
|-----------7--------|--------0--3--------|--------------------|
|--------------0-----|-----0--------------|--------------------|
|--------------------|--0-----------------|--------------------|
pizz...........................................................


|------5--5--8--6--5-|--9-------5---------|------5-5--8--6--5--|
|-)6-8---------------|------0-------------|-)6-8---------------|
|-)9------------5----|--9-------6--6--7p6-|-(9-----------5-----|
|-(0------5----------|--7-----------------|-)0-----5-----------|
|-)0-----------------|----------0---------|-(0-----------------|
|-(0-----------------|--------------------|-)0-----------------|



|--9-------5---------|------------3-5-3---|--5------------<12>-|
|------0-------------|--3h5-6--6--------6-|--0-----5-----------|
|--9-------6--6--7p6-|----------------3---|--------6-----------|
|--7-----------------|--3------3----------|--------------------|
|----------0---------|------0-------------|-----0-----<5>------|
|--------------------|--0-----------------|--------------------|


                                          
|------------3-5-3---|--5------------<12>-|--------------------|
|--3h5-6--6--------6-|--0-----5-----------|--------------3-----|
|----------------3---|--------6-----------|-----------2--------|
|--3------3----------|--------------------|--------0-----------|
|------0-------------|-----0-----<5>------|-----0--------------|
|--0-----------------|--------------------|--0-----------------|
                                          pizz.................


|--------5-----------|--------------------|--------5--9--12-17-|
|-----5--------------|-----------------3--|-----5--------------|
|--6-----------------|--------------2-----|--6-----------------|
|-----------7--------|--------0--3--------|--------------------|
|--------------0-----|-----0--------------|--------------------|
|--------------------|--0-----------------|--------------------|
pizz...........................................................


|--------------------|--------5-----------|--------------------|
|--------------3-----|-----5--------------|-----------------3--|
|-----------2--------|--6-----------------|--------------2-----|
|--------0-----------|-----------7--------|--------0--3--------|
|-----0--------------|--------------0-----|-----0--------------|
|--0-----------------|--------------------|--0-----------------|
pizz...........................................................


|--------5--9--12-17-|-----------------10-|--9--7--9-----5-----|
|-----5--------------|-(7-----8--10-------|--8-----------------|
|--6-----------------|-)9--7-----9--------|--------------6-----|
|--------------------|-)7--------------0--|--9-----------------|
|--------------------|-(0--------9---0----|-----------0----<5>-|
|--------------------|-)0-----------------|--------------------|
pizz.................


|--7-9-7----7--------|--5------------<12>-|-----------------10-|
|------7-10---10-8-7-|--0-----5-----------|-)7-----8--10-------|
|------7-----------7-|-----0--6-----------|-(9--7-----9--------|
|----------------7---|--------------------|-)7--------------0--|
|-------------9------|-----------<5>------|-(0--------9--0-----|
|------0-------------|--------------------|-)0-----------------|



|--9--7--9-----5-----|--7-9-7----7--------|--5------------<12>-|
|--8-----------------|------7-10---10-8-7-|--0-----5-----------|
|--------------6-----|------7-----------7-|-----0--6-----------|
|--9-----------------|----------------7---|--------------------|
|-----------0----<5>-|--------------9-----|-----------<5>------|
|--------------------|------0-------------|--------------------|



|-(7--7--7------5----|--3--5--7------(3---|--------------------|
|-)5-----------------|---------------)3---|--<12>--10--8--7----|
|-(7--6--7------5----|--4--5--7------(2---|--<12>--11--9--7----|
|-)5--------3--------|---------------)2---|--------------------|
|-(5--------3--------|---------------(2---|--------------------|
|-)5--------3--------|------------0--)2---|--------------------|



|-----5--3-----------|--------------------|--------5-----------|
|--5-----3---2-------|--------------3-----|-----5--------------|
|--4-----3---2---0---|-----------2--------|--6-----------------|
|--5-----1---2-------|--------0-----------|-----------7--------|
|--0-------0---0---0-|-----0--------------|--------------0-----|
|--------------------|--0-----------------|--------------------|
                     pizz......................................


|--------------------|--------5--9--12-17-||
|-----------------3--|-----5--------------||
|--------------2-----|--6-----------------||
|--------0--3--------|--------------------||
|-----0--------------|--------------------||
|--0-----------------|--------------------||
pizz......................................  Fine
Suggest correction
Give kudos to tab author, rate the tab!
1 2 3 4 5
comments
print report bad tab
guest
You may want to rate the tab now too:
select rating
Please do not post tabs as comments. Select "correction" instead!