Oops, an error
Loading. Please wait.

Study No 3 Tab

595 views 1 this week
no commentswrite comment
1 2 3 4 5
excellent!
x 4
add to favorites
launch autoscroll
font size
0
reset
how to read this tab
guitar tuner
Tab Pro tools
  • play this tab
  • loop segment
  • change instrument
  • show fretboard
  • metronome
×
Best way to learn
"Study No 3"
Autoscroll
slow
fast
+/-
esc
set tempo
stop
Contributor
Tabbers playing skills
intermediate +
  _____ _____ ___   _____ _____ ___
  | | | | | | | |   | | | | | | | |
E---1-----1-----1-|---1-----1-----1-|---1-----1-----1-|
B-----1-----1---1-|-----1-----1---1-|-----0-----0---0-|
G-------------1==-|-3-----3-----1---|-------------0---|
D-0====-0====-----|-----------------|-0-----0---------|
A-----------------|-----------------|-----------------|
E-----------------|-----------------|-----------------|
  |.    |.    |     |.    |.    |
             <<<<<<<          >>>>>>>             <<<<


                fermata
E---1-----1-----1======--||
B-----0-----0---0======--||
G-2-----2-----0========-*||
D-----------------------*||
A------------------------||
E------------------------||
       >>>>>>

pp (came eco)

E|----0-----0-----0-|---0-----0-----0-|---0-----0-----0-|
B|------0-----0---0-|-----0-----0---0-|-----3-----3---3-|
G|*-------0====-----|-2====-------0==-|-------0---------|
D|*-----------------|-----------------|-----------------|
A|--4====-------4==-|-------4====-----|-3-----------3---|
E|------------------|-----------------|-----------------|
    |.    |.    |     |.    |.    |     |.    |.    |
    3      _          1_           _    3   4        _
               <<<<<<        >>>>>>              <<<<<<<


E---0-----0-----0--||
B-----3-----3---3--||
G-2-----------0---*||
D-----------------*||
A-------3----------||
E------------------||
  |.    |.    |
  1       >>>>>>

          _____ _______ _____ __> __>   _____ _____ _____
p legato  | | | | |   | | | | | | | |   | | | | | | | |
E|------------------|-----------2---0-|-----------------|
B|----3-----3-----3-|-----3-----0---0-|---0-----0-----3-|
G|*-----0-----0-----|-0-----0---------|-----0-----0-----|
D|*-------------0======-2====-0==-----|-0====-0====-----|
A|--2====-3====-----|-------------3==-|-------------2====
E|------------------|-----------------|-----------------|
    |.    |.    |.      |.    |   |     |.    |.    |
    1 3   2                   >   >
                              <<<<<<<

____  __. ____. __.      _.   ._____.
   |  | | | | | | |       |   | | | |
E-------------------|------------------||
B-------3-----1---3-|-----1---3-----0--||
G--0----0-----0---0-|-----0---0-----0-*||
D-----4---0-2---4---|-0-2---4---0-2---*||
A=(2)---------------|------------------||
E-------------------|------------------||
      |   | |   |     | |   |   | |
      >  -. .   >     .-.--->  -. .
      2 1   2 1
      staccato

5/8 __  ___             ___ _____
    |   | |             | | | | |   rall.
E-----------|----|----|-----------|-----------|
B---0-------|----|----|---0---2---|---0---2---|
G---0---3-3-|-0/-|-0/-|---0---0---|---0---0---|
D-------3-3-|-/0-|-/0-|-0---4==-1-|-0---4---1-|
A-----------|----|----|-----------|-----------|
E-0==-3====-|----|----|-----------|-----------|
  |   |.     <<<<<<<<<      |   |       |   |
                            >   --          --
                                    >>>>>>>>>

       fermata
E---------------||
B---0---2====---||
G---0---0====---||
D-0---4======-1-||
A---------------||
E---------------||
  (dim.)


a tempo
2/2                                   rall. molto
E---1-----1-----1-|---1-----1-----1-|---1-----1-----1-|
B-----1-----1---1-|-----1-----1---1-|-----0-----0---0-|
G-------------1---|-3-----3-----1---|-------------0---|
D-0-----0---------|-----------------|-0-----0---------|
A-----------------|-----------------|-----------------|
E-----------------|-----------------|-----------------|
              <<<<            >>>>>               <<<


                fermata
E---1-----1-----1======-||
B-----0-----0---0======-||
G-2-----2-----0========-||
D-----------------------||
A-----------------------||
E-----------------------||
       >>>>>>

========
========

  >
  | 
--0-- - medium accent
  .
  |
--0-- - staccato
comments
print report bad tab
I want to post or [tab]
guest
You may want to rate the tab now too:
select rating
Please do not post tabs as comments. Select "correction" instead!