Oops, an error
Loading. Please wait.

Arms Of Mary Tab

version 2
version 2

Whole song

Interactive

519 views 3 this week
1 commentread comment
1 2 3 4 5
excellent!
x 3
add to favorites
launch autoscroll
font size
0
reset
how to read this tab
guitar tuner
Autoscroll
slow
fast
+/-
esc
set tempo
stop
Help us to improve Ultimate-Guitar.com Take our survey!
×
Author
Difficulty
Tuning
z-spot 265
advanced
D G D G B D
                        Arms of Mary                                 
                         Leo Kottke

tabbed by Alex (Zandy) Wight

Open G tuning

      E  E  E  E  E  E  E  E     E  E  E  E  E  E  E  E     
D||---------------------------|-----------------------0---||
B||---------------------------|---------------------------||
G||*--------0--0-----L--0-----|--L-----0--0--------L-----*||
D||*--------5--5-----L--5-----|--L-----5--5-----L--4--L--*||
G||------4-----L-----4--L-----|-----5-----L-----5--L------||
D||---0--------L--0-----L--0--|--0--------L--0--------L---||


   E  E  T  S. E   S  S   E  E  E     E  E  E  E  E  E  E  E   
-----------------------------------|--------------------------|
-----------------------------------|--------------------------|
*--------2S-4--4~--L-(4)S-2--0-----|-----------0-----L--2--L--|
*-----0--L----------------0--L--4--|-----L--4--L--------4--L--|
---0-----------L---0---------L-----|-----2-----L-----2--------|
-----------------------------------|--0--------L--0-----L--4--|


  E  E  T  S. E  S  S   E  E  E     E  E  E  E  S  S  E   E   E     
---------------------------------|---------------------------------|
---------------------------------|---------------------------------|
--------2S-4--4--L-(4)\----0--2--|--L--L--2--4--L---------9--(9)\--|
-----0------------------2--0--2--|--L--2--L----------10---L--------|
--0-----------L--4---------L-----|--2--------L--2S-9---------------|
--------------2------------------|---------------------------------|


  ^                                                             
                  3 3    3                         |--3--|      
  E  E  E  E  E   S Q    Q       E  Q    S  S Q    S  S  S  E   
--0-----L--0--0---L-0----0----|--0--L---------0----L-----L-----|
--0-----L--0--0---L-0----0----|--1--L--------------------------|
--7--L--7-----7s----5----4----|--2--L---------0----L-----L-----|
-----9--L-----9s----7----5----|--4--L--------------------------|
--0--------L------------------|----------2s-5-L----4h-5p-4S-2--|
------------------------------|-----0--------------------------|


                     |--3--|                                     
  S  S E  E  Q    E  S  S  S  E     E  E  E   Q     E    Q       
-------------0----L--------L-----|------------0-----L----------||
-------------0----L--------L-----|-----------------------------||
----------0--L-------------------|----------------------------*||
-------0-----L-------------------|--------4~--L----(4)S--2----*||
--2s-4-------L-------------------|-----2------------L----------||
------------------5--4h-5p-4S-2--|--0--------------------L-----||


                   |--3--|                                   
  E  E  E  Q    E  S  S  S  E     E  E  E   Q     E    Q     
-------------------------------|------------0-----L---------|
-----------0----L--------L-----|----------------------------|
--------0--L-------L-----------|----------------------------|
-----0-----L-------------------|--------4~--L----(4)S--2----|
--0--------L-------------------|-----2------------L---------|
----------------5--4h-5p-4S-2--|--0--------------------L----|


      NH                                                  
      E   E  E  Q    E  E  E     E  E  E  E  E  E  E  E   
------------------------------|-----------------------0--|
------------------------------|--------------------------|
-------------0--0----L--0--L--|--------0--0-----L--------|
-------------5--5----L--5--L--|-----5--------L--4--4-----|
----------4-----L----4--L--4--|--5--------L--5--------L--|
--<>(12)-------------------L--|--------------------------|


  E  E  E  E  E  E  E  E     E  E  E  E  E  E  E  E   
-----------L--------------|-----------------------0--|
--------------------------|--------------------------|
--------0--0-----L--0-----|-----L--0--0--------L-----|
--L-----5--5-----L--5-----|-----L--5--5-----L--4-----|
-----4--------L--4-----L--|-----5--------L--5--------|
--0--------L--0-----L--0--|--0--------L--0--------L--|


                           ^            ^                         
  E  E   S   S  E   E   E  E  S  S      E  E  E  E  E  E   E  E   
-----L--10s-12-12~------L--9--L-(9)\-|--7--L--7--9-----L--10--L--|
--------10s-12-12-------L--8--L-(8)\-|--7--L--7--8-----L--10--L--|
---------------------------0--L------|--7--L------------------7--|
-----0--------------L---0--L--0--L---|--------7--------L---7--L--|
--0-------------L---0------------L---|-----7--------L--7------L--|
-------------------------------------|--0--------L--0---------L--|


                                 ^                         
  E  E   E   E  E  E   E   E     E  E  E  S  Q    S Q      
--------12--12-----L----------|--5--L--5------------------|
--------12--12-----L--12\--L--|--5--L--5--5s-7----L-5\----|
---------0------------12\--L--|--5--L--5--5s-7----L-5\----|
-----0---L---------9---L------|-----5--L--5s-7----L-5\----|
--0------L------9------L---0--|--5-----L------------5\----|
-------------9---------L------|---------------------------|


  ^                                                                   
                 3   |--3-|          |-3-|                            
  E  E  E  E  S  E.  Q    E   S      T T E   E  E   E   E  E  E   E   
--0-----L--0----------------------|-----------------0------L---------|
--0-----L--0--3s-5--------L-------|-----------------0------L---------|
--0--L--0--L--3s-5---5----L-------|----------------------------------|
-----0-----L--3s-5---5----5--(5)\-|------4~-----L--(4)--------4s--2--|
--0--------L---------5----5--(5)\-|----2-----L--2-------L--2------L--|
--------------------------5--(5)\-|--0-------0------L---0---------L--|


                           ^            ^                         
  E  E   S   S  E   E   E  E  S  S      E  E  E  E  E  E   E  E   
-----L--10s-12-12~------L--9--L-(9)\-|--7--L--7--9-----L--10--L--|
--------10s-12-12-------L--8--L-(8)\-|--7--L--7--8-----L--10--L--|
---------0------L----------0--L------|--7--L------------------7--|
-----0--------------L---0--L--0--L---|--------7--------L---7--L--|
--0-------------L---0------------L---|-----7--------L--7------L--|
-------------------------------------|--0--------L--0---------L--|


  E  E   E   E  E  E   E   E   
--------12--12-----L----------|
--------12--12-----L--12\--L--|
---------0------------12\--L--|
-----0---L---------9---L------|
--0------L------9------L---0--|
-------------9---------L------|


                       
  ^                                                                       ^
  E                                                  X T. S E   E   Q     Q
--5--------------------------------------------------L---------------------
--5--------------------------------------------------L------8s--5s--------1
--5--------------------------------------------------L--------------------0
-------------------------------------------------------7s-9-L-------------0
--5--------------------------------------------------L--------------5s----2
---------------------------------------------------------------------------


                                       ^                        
                   3   |--3-|                                   
  S  S E  E  E  S  E.  Q    E   S      E   E  E   E   H         
--0-------L--0----------------------|-------------0---L--------|
--1s-3----L--0--3s-5--------L-------|-------------0---L--------|
--2s-4-L--0--L--3s-5---5----L-------|--------------------------|
-------0-----L--3s-5---5----5--(5)\-|--4~-----L--(4)-----------|
--0----------L---------5----5--(5)\-|--2---L--2-------L--------|
----------------------------5--(5)\-|--0---0------L---0--------|


  E  E   E  E   E  E   E   E     E  E   E   H        E   
--0---------------------------|-------------------------|
-----1p--0--------------------|-------------------------|
------------2p--0-------------|-------------------------|
-------------------4p--2p--0--|-------------------------|
------------------------------|--5--4s--2p--0--------L--|
------------------------------|-------------------------|


          ^   ^          ^                ^   ^                 
  E   E   E   E  E   E   E  E     E   E   E   E  E   E   E  E   
-------------------------------|----------------------------0--|
-------------------------------|-------------------------------|
----------0---0--L-------0-----|--L-------0---0------L---------|
---------15--15--L------15-----|--L------15--15------L--14--L--|
-----14----------L--14---L-----|-----15----------L--15------L--|
--0-----------L--0-------L--0--|--0-----------L--0----------L--|


          ^   ^          ^                ^   ^                 
  E   E   E   E  E   E   E  E     E   E   E   E  E   E   E  E   
------L------------------------|----------------------------0--|
-------------------------------|-------------------------------|
----------0---0--L-------0-----|--L-------0---0------L---------|
---------15--15--L------15-----|--L------15--15------L--14--L--|
-----14----------L--14---L-----|-----15----------L--15------L--|
--0-----------L--0-------L--0--|--0-----------L--0----------L--|


  E  E   E   E  E  E   E  E     E   E   E   E   E  E  E  E    
-----------------------------|---------------------------7s--|
-----------------------------|-------------------------------|
---------7---7--L------7-----|--L-------7---7---L------------|
--------10--10--L-----10-----|--L------10--10p--L--9--9--L---|
-----9---L---------9------L--|-----10---L----------9--L------|
--7----------L--7------L--7--|--7-----------L---7--------L---|


  E  E  E  E  E  E  E  E     E  E  E  E   E  E  E  E    
--5--------L--------------|------------------------5s--|
--------------------------|----------------------------|
--------5--5--L-----5-----|--L-----5--5---L------------|
--------8--8--L-----8-----|--L-----8--8p--L--7--7------|
-----7--L--------7--L-----|-----8--L---------8---------|
--5--------L--5-----L--5--|--5--------L---5-----L------|


  E  E  E  E  E  E  E  E     E  E  E  S  E    S   E  E   E   
--2--------L--------------|---------------------------------|
--------------------------|---------------------------------|
--------2--2--L-----2--L--|-----------2s-5~--(5)s-4--2s--0--|
--------5--5--L-----5--L--|--------0------------------------|
-----4--L--------4--L-----|-----2--L------------------------|
--2--------L--2-----L--0--|--0-----L------------------------|


                              ^                  
  E  E  E  Q     E  E   E     W                  
-----------4p----0---------|--------------------|
--------5--------L--5s--3--|--1-----------------|
-----5--------------L------|--2~----------------|
--4-----L------------------|--------------------|
---------------------------|--------------------|
---------------------------|--------------------|


     NH    NH                                                        
     E     E  T  S. E   S  S   E  E  E     E  E  E  E  E  E  E  E    
----------------------------------------|---------------------------|
----------------------------------------|---------------------------|
--------------2S-4--4~--L-(4)S-2--0-----|-----------0--L--2--L------|
--------<>12-----L-------------0--L--4--|-----L--4--L--------4--L---|
--<>12-----------L------0---------L-----|-----2-----L-----2---------|
----------------------------------------|--0--------L--0-----L--4b--|


  E  E  T  S. E  S  S   E  E  E     E  E  E  E  S  S  E   E   E     
---------------------------------|---------------------------------|
---------------------------------|---------------------------------|
--------2S-4--4--L-(4)\----0--2--|--L--L--2--4--L---------9--(9)\--|
-----0------------------2--0--2--|--L--2--L----------10---L--------|
--0-----------L--4---------L-----|--2--------L--2S-9---------------|
--------------2------------------|---------------------------------|


  ^                                                  
                  3 3    3                           
  E  E  E  E  E   S Q    Q       E  H.           E   
--0-----L--0--0---L-0----0----|--0--L------------L--|
--0-----L--0--0---L-0----0----|--1--L------------L--|
--7--L--7-----7s----5----4----|--2--L------------L--|
-----9--L-----9s----7----5----|--4--L------------L--|
--0--------L------------------|---------------------|
------------------------------|-----0------------L--|


            ^                                                       
               |----3----|        |-3-|                             
   E  E  E  E  Q    Q    Q        T T E   E  E   E   E  E  E    E   
------------5------------------|-----------------0------L----------|
--/5-----L--5--5---------------|-----------------0------L----------|
------------5--5----5----------|-----------------------------------|
--/5--L--5--L--5----5----5\----|------4~-----L--(4)--------4s--10--|
--/5--5--L--5-------5----5\----|----2-----L--2-------L--2-------L--|
-------------------------5\----|--0-------0------L---0----------L--|


   ^                             ^                       
               |----3----|                               
   Q    E   E  Q    Q    Q       Q    E  E  E  E  E  E   
---7--------L--7--------------|-------------------------|
---7--------L--7---------L----|-------------------------|
---7--------L--7---------L----|--0-------L--------------|
--10----L--10--L----9----7----|--5----L--5-----L--5--L--|
---7----7------L---------L----|--4----4--L-----4--L-----|
------------------------------|--0-------L--0-----L--0--|


    E  E  E  E  E  E  E  E     E  E  E  E  E  E  E  E     
|------------------------0--|--------L------------------||
|---------------------------|---------------------------||
|*--------0--0-----L--------|--------0--0-----L--0--L--*||
|*--L-----5--5-----L--4--L--|--------5--5-----L--5--L--*||
|------5--L--------5--L-----|-----4--L--------4--L------||
|---0--------L--0--------L--|--0--------L--0-----L--0---||


                                   vibrato...           
  E  E  E  E   E   E   E  E     T. H.           E.  X   
-----------------------------|-----5------------L---L-||
--------------------------0--|------------------L---L-||
--------0--0-------L---------|------------------------||
--------5--5p--L--(4)--4--L--|------------------------||
-----5-----L-------5------L--|--0---------------L---L-||
--0--------L---0----------L--|------------------------||




Duration Legend
---------------
W - whole
H - half
Q - quarter
E - 8th
S - 16th
T - 32nd
X - 64th
. - note dotted
|-n-|  - n-tuplets


Tablature Legend
----------------
L - tied note
x - dead note
g - grace note
(n) - ghost note
> - accentuded note
NH - natural harmonic
AH - artificial harmonic
TH - tapped harmonic
SH - semi harmonic
PH - pitch harmonic
h - hammer on
p - pull off
b - bend
br - bendRelease
pb - preBend
pbr - preBendRelease
brb - bendReleaseBend
\n/ - tremolo bar dip
\n - tremolo bar dive
-/n - tremolo bar Release up
/n\ - tremolo bar inverted dip
/n - tremolo bar return
-\n - tremolo bar Release down
S - shift slide
s - legato slide
/ -  slide into from below or out of upwards
\ -  slide into from above or out of downwards
~ - vibrato
W - wide vibrato
tr - trill
TP - tremolo picking
T - tapping
S - slap
P - pop
< - fade in
^ - brush up
v - brush down
Suggest correction
What's this?
You can suggest a correction to this tab. Community and Mods will review your correction and vote to approve or reject it.
comments
We did not receive enough feedback on this tab! Please rate:
print report bad tab
1 2 3 4 5
1 comment total.
0 reply
Ragmop 11 wrote on September 22 2014, 01:36 pm

Alex,
Fabulous job on this tab! I must admit that I have had a struggle with the 7th fret, 5th fret and 2nd fret bar-chords but, I have learned how to make them work and do the 1st string slides that lead to each chord. It may be cheating but I add a slight delay while I am concentrating on forming each chord shape. Also, I have been playing the piece one whole-step down to CFCFAC. Very playable, once you get the hang of it. Great job!
Bravo Zulu
Ragmop

guest
You may want to rate the tab now too:
select rating
Please do not post tabs as comments. Select "correction" instead!