Oops, an error
Loading. Please wait.

Hello tab

version 1
version 1

Whole song

Interactive

5,002 views 63 this week
no commentswrite comment
1 2 3 4 5
x 4
add to favorites
×
Save as Personal and add changes to this tab that will be seen only by you. Learn more ›
×
You can save this tab as Personal to edit and correct it or add notes. All changes will be seen only by you. Learn more »
launch autoscroll
font size
0
reset
how to read this tab
guitar tuner
edit
Autoscroll
slow
fast
+/-
esc
set tempo
stop
(On 7 string & Metal) The solo is 100% right...
Intro: Palm Muted

E|----------------------------------------------------|
B|----------------------------------------------------|
G|----------------------------------------------------|
D|-------------8------------------6-------------------|
A|-------8---6---6--------8-----4---4-----------------|
E|-----8---4------4-----6-----4------4----------------|
A|---8---------------6--------------------------------|

Verse: Palm muted

E|----------------------------------------------------|
B|----------------------------------------------------|
G|----------------------------------------------------|
D|----------------------------------------------------|
A|--8-8-8--6-6-6-6-6--3-3-3--4-4-4-4-4----------------|
E|--8-8-8--6-6-6-6-6--3-3-3--4-4-4-4-4----------------|
A|--8-8-8--6-6-6-6-6--3-3-3--4-4-4-4-4----------------|

Then Last Chord 4 distorted:

E|----------------------------------------------------|
B|----------------------------------------------------|
G|----------------------------------------------------|
D|----------------------------------------------------|
A|--8-8-8--6-6-6--4~----------------------------------|
E|--8-8-8--6-6-6--4~----------------------------------|
A|--8-8-8--6-6-6--4~----------------------------------|

Chorus: HEEELLLOOO!!

E|----------------------------------------------------|
B|----------------------------------------------------|
G|----------------------------------------------------|
D|----------------------6-----------------------------|
A|-\15--8-x-4-4-4--x-x--6--x--6-6-6-------------------|
E|-\15--8-x-4-4-4--x-x--4--x--6-6-6-------------------|
A|-\15--8-x-4-4-4--x-x-----x--6-6-6-------------------|

E|----------------------------------------------------|
B|----------------------------------------------------| Repeat
G|----------------------------------------------------|
D|--------------------6-------------------------------|
A|----8-x-4-4-4--x-x--6--x--6-6-6---------------------|
E|----8-x-4-4-4--x-x--4--x--6-6-6---------------------|
A|----8-x-4-4-4--x-x-----x--6-6-6---------------------|

After Chorus:

E|----------------------------------------------------|
B|----------------------------------------------------| Repeat
G|----------------------------------------------------|
D|---------------------6------------------------------|
A|--8------4-----4-----6-----6-----6------------------|
E|--8------4-----4---x-4-4-4-6-----6------------------|
A|--8-8-8--4-4-4-4-4-x-------6-6-6-6-6----------------|

[Verse]

E|----------------------------------------------------|
B|----------------------------------------------------|
G|----------------------------------------------------|
D|----------------------------------------------------|
A|--8-8-8--6-6-6-6-6--3-3-3--4-4-4-4-4----------------|
E|--8-8-8--6-6-6-6-6--3-3-3--4-4-4-4-4----------------|
A|--8-8-8--6-6-6-6-6--3-3-3--4-4-4-4-4----------------|

E|----------------------------------------------------|
B|----------------------------------------------------|
G|----------------------------------------------------|
D|----------------------------------------------------|
A|--8-8-8--6-6-6--4~~---------------------------------|
E|--8-8-8--6-6-6--4~~---------------------------------|
A|--8-8-8--6-6-6--4~~---------------------------------|

[Chorus]

E|----------------------------------------------------|
B|----------------------------------------------------|
G|----------------------------------------------------|
D|----------------------6-----------------------------|
A|-\15--8-x-4-4-4--x-x--6--x--6-6-6-------------------|
E|-\15--8-x-4-4-4--x-x--4--x--6-6-6-------------------|
A|-\15--8-x-4-4-4--x-x-----x--6-6-6-------------------|

E|----------------------------------------------------|
B|----------------------------------------------------|
G|----------------------------------------------------|
D|--------------------6-------------------------------|
A|----8-x-4-4-4--x-x--6--x--6-6-6---------------------|
E|----8-x-4-4-4--x-x--4--x--6-6-6---------------------|
A|----8-x-4-4-4--x-x-----x--6-6-6---------------------|

Rhythm guitar on solo:

E|----------------------------------------------------|
B|----------------------------------------------------|
G|----------------------------------------------------|
D|----------------------------------------------------|
A|----------------------------------------------------|
E|------------1-1-1-----------------------------------|
A|--\8-2-3-4-------3^hbr-x-3^hbr-x-3^hbr--------------|

Second time:

E|----------------------------------------------------|
B|----------------------------------------------------|
G|----------------------------------------------------|
D|----------------------------------------------------|
A|----------------------------------------------------|
E|------------1-1-1--------------3/8-7^hbr------------|
A|--\8-2-3-4-------3^hbr-x-3^hbr----------------------|

Solo (by Pete Cottrell):

E|-------------------------------------------------------|
B|-------------------------------------------------------|
G|---3^hbr-3^3^3^-3^hbr--3^1-3^1-3^1-3^1/10^v^v^v^-------|
D|-------------------------------------------------------|
A|-------------------------------------------------------|
E|-------------------------------------------------------|
A|-------------------------------------------------------|

E|----------------------------------------------------|
B|----------------------------------------------------|
G|-15-14-------15-14-------15-14-------15-14----------|
D|-------15-14-------15-14-------15-14-------15-14----|
A|----------------------------------------------------|
E|----------------------------------------------------|
A|----------------------------------------------------|

E|----------------------------------------------------|
B|----------------------------------------------------|
G|-15-14-------15-14-------15-14-------15-14----------|
D|-------15-14-------15-14-------15-14-------15-14----|
A|----------------------------------------------------|
E|----------------------------------------------------|
A|----------------------------------------------------|

E|--------------------------------------18-13-16-13---|
B|--------------------18-13-16-13---------------------|
G|-16-13-15-13--------------------16-13---------------|
D|--------------15-13---------------------------------|
A|----------------------------------------------------|
E|----------------------------------------------------|
A|----------------------------------------------------|

E|----------------------------------------------------|
B|-16-13--15^fbvfbv^v^v-------------------------------|
G|----------------------------------------------------|
D|----------------------------------------------------|
A|----------------------------------------------------|
E|----------------------------------------------------|
A|----------------------------------------------------|

E|----------------------------------------------------|
B|-----10^hb------------------------------------------|
G|-----10^hb------------------------------------------|
D|-{12}-------15-13-----------------------------------|
A|------------------15-14-13-11------------6----------|
E|------------------------------13-12-11------8-7-6---|
A|----------------------------------------------------|

E|----------------------------------------------------|
B|----------------------------------------------------|
G|----------------------------------------------------|
D|--------------9------9^hb^v^------------------------|
A|-------8/6^r----8-6--8^hb^v^---------------9--------|
E|--6/10---------------7^hb^v^-------8-(6)/8----------|
A|-----------------------------(3)/7------------------|

E|----------------------------------------------------|
B|-----------------12-----------------------------13--|
G|-------10-(8)/10-------------------------(8)/12-----|
D|-(5)/9-------------------------------12-------------|
A|---------------------------11-(9)/11----------------|
E|---------------------(6)/10-------------------------|
A|----------------------------------------------------|

(Please note that the second ascending run is an octave of the first, then the third and 
fourth ascending runs
are minor thirds of the first two but with the 10 played on the E)

E|--------------16-13---------------------------------|
B|---------15---------16-13-------16-13---------------|
G|-(11)/13------------------15-13-------15-13---------|
D|--------------------------------------------15-13---|
A|----------------------------------------------------|
E|----------------------------------------------------|
A|----------------------------------------------------|

E|----------------------------------------------------|
B|----------------------------------------------------|
G|----------------------------------------------------|
D|-------15-13-------------(13)/15^r^r^r^r^r^r^r^r----|
A|-15-13-------15-13----------------------------------|
E|-------------------16-13----------------------------|
A|----------------------------------------------------|

[Chorus]

E|----------------------------------------------------|
B|----------------------------------------------------|
G|----------------------------------------------------|
D|----------------------6-----------------------------|
A|-\15--8-x-4-4-4--x-x--6--x--6-6-6-------------------|
E|-\15--8-x-4-4-4--x-x--4--x--6-6-6-------------------|
A|-\15--8-x-4-4-4--x-x-----x--6-6-6-------------------|

Repeat it till end

E|----------------------------------------------------|
B|----------------------------------------------------|
G|----------------------------------------------------|
D|--------------------6-------------------------------|
A|----8-x-4-4-4--x-x--6--x--6-6-6---------------------|
E|----8-x-4-4-4--x-x--4--x--6-6-6---------------------|
A|----8-x-4-4-4--x-x-----x--6-6-6---------------------|

******************************************************

Key:
^fb      ~ Up full bend
vfb      ~ Down full bend
^hb      ~ Up half bend
r        ~ Release/Return to original position
^        ~ Bend up
v        ~ Bend down
^v^v^v   ~ Vibrato type thing
x        ~ Mute
/ or \   ~ Slide
{}       ~ Rake
()       ~ Unpicked [*pick the note it slides up to*]

******************************************************

            
            
Suggest correction
Creating personal tab
Creating personal tab
You can edit any tab online and save it as your Personal.

You can edit, replace or remove any tab part or add personal notes – all changes will be seen only by you.

Personal tabs can be accessed anytime from any device, even offline.
Learn more »
comments
print report bad tab
guest
You may want to rate the tab now too:
select rating
Wanna post a correction for this tab? Suggest correction