Oops, an error
Loading. Please wait.

Hurt Tab

version 1
version 1

Whole song

Interactive

31 views 9 this week
no commentswrite comment
1 2 3 4 5
2 more votes to show rating
add to favorites
launch autoscroll
font size
0
reset
how to read this tab
guitar tuner
Autoscroll
slow
fast
+/-
esc
set tempo
stop
Help us to improve Ultimate-Guitar.com Take our survey!
×
Author
Difficulty
Capo
novice
2nd fret
Capo on the 2nd fret in acoustic guitar parts

No capo in electric guitar parts



[Intro/Main part] Acoustic

e|-------------------------|----------------------8-|-----------------------|
B|--------4----------------|----------3-------------|-------4---------------|
G|--------5----------------|-------5-----------7----|-------5-------5-------|
D|-----7-------------------|----5-----------7-------|----7------------------|
A|--0----------------------|-3-----------5----------|-0---------------------|
E|-------------------------|------------------------|-----------------------|

e|-------------------------|------------------------|
B|-----------3-------------|-------4----------------|
G|--------5-----------7----|-------5----------------|
D|-----5-----------7-----7-|----7-------------------|
A|--3-----------5----------|-0----------------------|
E|-------------------------|------------------------|


[Verse]4x Acoustic

e|-----------------------8-|------------------------|------------------------|-------------------------|
B|-----------3-------------|-------4----------------|----------3-------------|-------4-----------------|
G|--------5-----------7----|-------5-------5--------|-------5-----------7----|-------5-----------------|
D|-----5-----------7-------|----7-------------------|----5-----------7-----7-|----7--------------------|
A|--3-----------5----------|-0----------------------|-3-----------5----------|-0-----------------------|
E|-------------------------|------------------------|------------------------|-------------------------|


[Pre-Chorus]4x Acoustic

e|-------------------------|------------------------|------------------------|-------------------------|
B|-------------------------|------------------------|------------------------|-------------------------|
G|--0-----0-----0-----0----|-0-----0-----0-----0----|-0-----0-----0-----0----|-0-----0-----0-----0-----|
D|--0-----0-----0-----0----|-0-----0-----0-----0----|-0-----0-----0-----0----|-0-----0-----0-----0-----|
A|-------------------------|------------------------|------------------------|-------------------------|
E|-----3-----3-----3-----3-|----5-----5-----5-----5-|----1-----1-----1-----1-|----8-----8-----8-----8--|

[Pre-Chorus]4x Electric
e|-------------------------|------------------------|------------------------|-------------------------|
B|-------------------------|------------------------|------------------------|-------------------------|
G|-------------------------|------------------------|------------------------|-------------------------|
D|-------------------------|------------------------|------------------------|-7--7--7--7--7--7--7--7--|
A|--7--7--7--7--7--7--7--7-|-9--9--9--9--9--9--9--9-|-5--5--5--5--5--5--5--5-|-5--5--5--5--5--5--5--5--|
E|--5--5--5--5--5--5--5--5-|-7--7--7--7--7--7--7--7-|-3--3--3--3--3--3--3--3-|-------------------------|


[Chorus]2x Acoustic

e|-------------------------|------------------------|------------------------|-------------------------|
B|-------------------------|------------------------|------------------------|-------------------------|
G|--0-----0-----0-----0----|-0-----0-----0-----0----|-0-----0-----0-----0----|-0-----0-----0-----0-----|
D|--0-----0-----0-----0----|-0-----0-----0-----0----|-0-----0-----0-----0----|-0-----0-----0-----0-----|
A|-------------------------|------------------------|------------------------|-------------------------|
E|-----3-----3-----3-----3-|----5-----5-----5-----5-|----1-----1-----1-----1-|----3-----3-----3-----3--|

[Chorus]2x Electric
e|-------------------------|------------------------|------------------------|-------------------------|
B|-------------------------|------------------------|------------------------|-------------------------|
G|-------------------------|------------------------|------------------------|-------------------------|
D|-------------------------|------------------------|------------------------|-------------------------|
A|--7--7--7--7--7--7--7--7-|-9--9--9--9--9--9--9--9-|-5--5--5--5--5--5--5--5-|-7--7--7--7--7--7--7--7--|
E|--5--5--5--5--5--5--5--5-|-7--7--7--7--7--7--7--7-|-3--3--3--3--3--3--3--3-|-5--5--5--5--5--5--5--5--|


[Main part] Acoustic

e|-------------------------|----------------------8-|-----------------------|
B|--------4----------------|----------3-------------|-------4---------------|
G|--------5----------------|-------5-----------7----|-------5------5--------|
D|-----7-------------------|----5-----------7-------|----7------------------|
A|--0----------------------|-3-----------5----------|-0---------------------|
E|-------------------------|------------------------|-----------------------|

e|-------------------------|------------------------|
B|-----------3-------------|-------4----------------|
G|--------5-----------7----|-------5----------------|
D|-----5-----------7-----7-|----7-------------------|
A|--3-----------5----------|-0----------------------|
E|-------------------------|------------------------|



[Verse]4x Acoustic

e|-----------------------8-|------------------------|------------------------|-------------------------|
B|-----------3-------------|-------4----------------|----------3-------------|-------4-----------------|
G|--------5-----------7----|-------5-------5--------|-------5-----------7----|-------5-----------------|
D|-----5-----------7-------|----7-------------------|----5-----------7-----7-|----7--------------------|
A|--3-----------5----------|-0----------------------|-3-----------5----------|-0-----------------------|
E|-------------------------|------------------------|------------------------|-------------------------|



[Pre-Chorus]2x Acoustic

e|-------------------------|------------------------|------------------------|-------------------------|
B|-------------------------|------------------------|------------------------|-------------------------|
G|--0-----0-----0-----0----|-0-----0-----0-----0----|-0-----0-----0-----0----|-0-----0-----0-----0-----|
D|--0-----0-----0-----0----|-0-----0-----0-----0----|-0-----0-----0-----0----|-0-----0-----0-----0-----|
A|-------------------------|------------------------|------------------------|-------------------------|
E|-----3-----3-----3-----3-|----5-----5-----5-----5-|----1-----1-----1-----1-|----8-----8-----8-----8--|

[Pre-Chorus]2x Electric
e|-------------------------|------------------------|------------------------|-------------------------|
B|-------------------------|------------------------|------------------------|-------------------------|
G|-------------------------|------------------------|------------------------|-------------------------|
D|-------------------------|------------------------|------------------------|-7--7--7--7--7--7--7--7--|
A|--7--7--7--7--7--7--7--7-|-9--9--9--9--9--9--9--9-|-5--5--5--5--5--5--5--5-|-5--5--5--5--5--5--5--5--|
E|--5--5--5--5--5--5--5--5-|-7--7--7--7--7--7--7--7-|-3--3--3--3--3--3--3--3-|-------------------------|


[Chorus]4x Acoustic

e|-------------------------|------------------------|------------------------|-------------------------|
B|-------------------------|------------------------|------------------------|-------------------------|
G|--0-----0-----0-----0----|-0-----0-----0-----0----|-0-----0-----0-----0----|-0-----0-----0-----0-----|
D|--0-----0-----0-----0----|-0-----0-----0-----0----|-0-----0-----0-----0----|-0-----0-----0-----0-----|
A|-------------------------|------------------------|------------------------|-------------------------|
E|-----3-----3-----3-----3-|----5-----5-----5-----5-|----1-----1-----1-----1-|----3-----3-----3-----3--|

[Chorus]4x Electric
e|-------------------------|------------------------|------------------------|-------------------------|
B|-------------------------|------------------------|------------------------|-------------------------|
G|-------------------------|------------------------|------------------------|-------------------------|
D|-------------------------|------------------------|------------------------|-------------------------|
A|--7--7--7--7--7--7--7--7-|-9--9--9--9--9--9--9--9-|-5--5--5--5--5--5--5--5-|-7--7--7--7--7--7--7--7--|
E|--5--5--5--5--5--5--5--5-|-7--7--7--7--7--7--7--7-|-3--3--3--3--3--3--3--3-|-5--5--5--5--5--5--5--5--|



[Outro] Electric

e|-------------------------|------------------------|
B|-------------------------|------------------------|
G|-------------------------|------------------------|
D|--7------7---------------|--4---------------------|
A|--7------5---------------|--2---------------------|
E|--5------5---------------|--2---------------------|


Suggest correction
Give kudos to tab author, rate the tab!
1 2 3 4 5
comments
print report bad tab
guest
You may want to rate the tab now too:
select rating
Wanna post a correction for this tab? Suggest correction