Oops, an error
Loading. Please wait.

When I Need You Tab

2,446 views 18 this week
no commentswrite comment
1 2 3 4 5
2 more votes to show rating
add to favorites
launch autoscroll
font size
0
reset
how to read this tab
guitar tuner
Autoscroll
slow
fast
+/-
esc
set tempo
stop
Help us to improve Ultimate-Guitar.com Take our survey!
×
                            WHEN I NEED YOU 
-----------------------------------------------------------------------------


 When I Need You is played in 3/4 Time.  

e|------------|---0---|--0----0-|--0--1--3---|--3--1--0-|-----|--------------|
B|------------|-------|---------|------------|----------|--3--|--3---3-------|
G|--0-0--2----|-------|---------|------------|----------|-----|--------------|
D|------------|-------|---------|------------|----------|-----|--------------|
A|------------|-------|---------|------------|----------|-----|--------------|
E|------------|-------|---------|------------|----------|-----|--------------|
  o when i      need    you  i  just close my eyes & im   with  you and

e|-----0--1--|--1--0-----|-----|--------|--------0-|--0------- |-------------|
B|--3--------|--------3--|-1---|--1---1-|--1--3----|-----3--1- |--0----------|
G|-----------|-----------|-----|--------|----------|---------- |-----2--0----|
D|-----------|-----------|-----|--------|----------|---------- |-------------|
A|-----------|-----------|-----|--------|----------|---------- |-------------|
E|-----------|-----------|-----|--------|----------|---------- |-------------|
 all that i   so want to   give  you its   on ly a  heart beet a   w a y

e|-----3--1--|--0---|--0---0-|--0--1--3-|--3--1--0-|----|--------|----0--1--|
B|-----------|------|--------|----------|----------|--3-|--3---3-|--3-------|
G|--0--------|------|--------|----------|----------|----|--------|----------|
D|-----------|------|--------|----------|----------|----|--------|----------|
A|-----------|------|--------|----------|----------|----|--------|----------|
E|-----------|------|--------|----------|----------|----|--------|----------|
  ho when i   need   love i  hold out my hands & i touch love i   nev er new
 
e|--1--0-----|----|----|--------0-|--0-------- |----|---------|-----|--------|
B|--------3--|-1--|-1--|--1--3----|-----3--1-- |-3--|-------0-|--3*-|--1-----|
G|-----------|----|----|----------|----------- |----|--0--2---|-----|--------|
D|-----------|----|----|----------|----------- |----|---------|-----|--------|
A|-----------|----|----|----------|----------- |----|---------|-----|--------|
E|-----------|----|----|----------|----------- |----|---------|-----|--------|
 they was so  much love keep ing me warm nite & day  oh when i  need  you
Suggest correction
Give kudos to tab author, rate the tab!
1 2 3 4 5
comments
print report bad tab
guest
You may want to rate the tab now too:
select rating
Wanna post a correction for this tab? Suggest correction