Oops, an error
Loading. Please wait.

Gravity tab

577 views 30 this week
no commentswrite comment
1 2 3 4 5
2 more votes to show rating
add to favorites
×
Save as Personal and add changes to this tab that will be seen only by you. Learn more ›
×
You can save this tab as Personal to edit and correct it or add notes. All changes will be seen only by you. Learn more »
launch autoscroll
font size
0
reset
how to read this tab
guitar tuner
edit
Autoscroll
slow
fast
+/-
esc
set tempo
stop
Artist : Leo Stannard
Song   : "Gravity"
Tuning : C# Ab C# F# Bb eb

The original chords are :   C#   Bbm   Ab   F#   Ebm
but since we are in Drop C# Tuning,
the actual chord shapes we will be using are shown below.

[Chords]
        C#   Bbm    Ab    F#   Ebm
eb|-----------0-----------------0-----|
Bb|-----3-----3-----3-----3-----3-----|
F#|-----2-----2-----2-----0-----0-----|
C#|-----4-----0-----2-----0-----2-----|
Ab|-----0-----2-----0-----x-----2-----|
C#|-----0-----------------5-----2-----|

[Intro]
eb|-----------x-----------x-----------x-----------x-----|
Bb|-----------x-----------x-----------x-----------x-----|
F#|-----------x-----------x-----------x-----------x-----|
C#|--------4--x-4---5---5-x-5------4--x-4---5---5-x-5p4-|
Ab|-----------x-----------x-----------x-----------x-----|
C#|-----0-----x-0---0-----x-0----0----x-0---0-----x-0---|

eb|-----------x-----------x-----------x-----------x-----|
Bb|-----------x-----------x-----------x-----------x-----|
F#|-----------x-----------x-----------x-----------x-----|
C#|--------4--x-4---5---5-x-5------4--x-4---5---5-x-5p4-|
Ab|-----------x-----------x-----------x-----------x-----|
C#|-----0-----x-0---0-----x-0----0----x-0---0-----x-0---|

[Verse 1]
eb|-----------x-----------x-----------x-----------x-----|
Bb|-----------x-----------x-----------x-----------x-----|
F#|-----------x-----------x-----------x-----------x-----|
C#|--------4--x-4---5---5-x-5------4--x-4---5---5-x-5p4-|
Ab|-----------x-----------x-----------x-----------x-----|
C#|-----0-----x-0---0-----x-0----0----x-0---0-----x-0---|

eb|-----------x-----------x-----------x-----------x-----|
Bb|-----------x-----------x-----------x-----------x-----|
F#|-----------x-----------x-----------x-----------x-----|
C#|--------4--x-4---5---5-x-5------4--x-4---5---5-x-5p4-|
Ab|-----------x-----------x-----------x-----------x-----|
C#|-----0-----x-0---0-----x-0----0----x-0---0-----x-0---|

eb|-----------x-----------x-----------x-----------x-----|
Bb|-----------x-----------x-----------x-----------x-----|
F#|-----------x-----------x-----------x-----------x-----|
C#|--------4--x-4---5---5-x-5------4--x-4---5---5-x-5p4-|
Ab|-----2-----x-2---2-----x-2----2----x-2---2-----x-2---|
C#|-----------x-----------x-----------x-----------x-----|

eb|-----------x-----------x-----------x-----------x-----|
Bb|-----------x-----------x-----------x-----------x-----|
F#|-----------x-----------x-----------x-----------x-----|
C#|--------4--x-4---5---5-x-5------4--x-4---5---5-x-5p4-|
Ab|-----------x-----------x-----------x-----------x-----|
C#|-----5-----x-5---5-----x-5----5----x-5---5-----x-5---|

eb|-----------x-----------x-----------x-----------x-----|
Bb|-----------x-----------x-----------x-----------x-----|
F#|-----------x-----------x-----------x-----------x-----|
C#|--------4--x-4---5---5-x-5------4--x-4---5---5-x-5p4-|
Ab|-----------x-----------x-----------x-----------x-----|
C#|-----0-----x-0---0-----x-0----0----x-0---0-----x-0---|

eb|-----------x-----------x-----------x-----------x-----|
Bb|-----------x-----------x-----------x-----------x-----|
F#|-----------x-----------x-----------x-----------x-----|
C#|--------4--x-4---5---5-x-5------4--x-4---5---5-x-5p4-|
Ab|-----------x-----------x-----------x-----------x-----|
C#|-----0-----x-0---0-----x-0----0----x-0---0-----x-0---|

eb|-----------x-----------x-----------x-----------x-----|
Bb|-----------x-----------x-----------x-----------x-----|
F#|-----------x-----------x-----------x-----------x-----|
C#|--------4--x-4---5---5-x-5------4--x-4---5---5-x-5p4-|
Ab|-----2-----x-2---2-----x-2----2----x-2---2-----x-2---|
C#|-----------x-----------x-----------x-----------x-----|

eb|-----------x-----------x-----------x-----------x-----|
Bb|-----------x-----------x-----------x-----------x-----|
F#|-----------x-----------x-----------x-----------x-----|
C#|--------4--x-4---5---5-x-5------4--x-4---5---5-x-5p4-|
Ab|-----------x-----------x-----------x-----------x-----|
C#|-----5-----x-5---5-----x-5----5----x-5---5-----x-5---|

[Chorus]
           C#             
Whenever I feel far from home
          
Facing the world on my own
            Bbm         
You are the calm in my storm
      
You are the light
                                 Ab
You are the light that's guiding me

The only one I see
               F#
The only one I need

You're my gravity

[Intro]
eb|-----------x-----------x-----------x-----------x-----|
Bb|-----------x-----------x-----------x-----------x-----|
F#|-----------x-----------x-----------x-----------x-----|
C#|--------4--x-4---5---5-x-5------4--x-4---5---5-x-5p4-|
Ab|-----------x-----------x-----------x-----------x-----|
C#|-----0-----x-0---0-----x-0----0----x-0---0-----x-0---|

[Verse 2]
eb|-----------x-----------x-----------x-----------x-----|
Bb|-----------x-----------x-----------x-----------x-----|
F#|-----------x-----------x-----------x-----------x-----|
C#|--------4--x-4---5---5-x-5------4--x-4---5---5-x-5p4-|
Ab|-----------x-----------x-----------x-----------x-----|
C#|-----0-----x-0---0-----x-0----0----x-0---0-----x-0---|

eb|-----------x-----------x-----------x-----------x-----|
Bb|-----------x-----------x-----------x-----------x-----|
F#|-----------x-----------x-----------x-----------x-----|
C#|--------4--x-4---5---5-x-5------4--x-4---5---5-x-5p4-|
Ab|-----------x-----------x-----------x-----------x-----|
C#|-----0-----x-0---0-----x-0----0----x-0---0-----x-0---|

eb|-----------x-----------x-----------x-----------x-----|
Bb|-----------x-----------x-----------x-----------x-----|
F#|-----------x-----------x-----------x-----------x-----|
C#|--------4--x-4---5---5-x-5------4--x-4---5---5-x-5p4-|
Ab|-----2-----x-2---2-----x-2----2----x-2---2-----x-2---|
C#|-----------x-----------x-----------x-----------x-----|

eb|-----------x-----------x-----------x-----------x-----|
Bb|-----------x-----------x-----------x-----------x-----|
F#|-----------x-----------x-----------x-----------x-----|
C#|--------4--x-4---5---5-x-5------4--x-4---5---5-x-5p4-|
Ab|-----------x-----------x-----------x-----------x-----|
C#|-----5-----x-5---5-----x-5----5----x-5---5-----x-5---|

[Chorus]
           C#             
Whenever I feel far from home
          
Facing the world on my own
            Bbm         
You are the calm in my storm
      
You are the light
                                 Ab
You are the light that's guiding me

The only one I see
               F#
The only one I need

You're my gravity

[Bridge]
Bbm   Ab   F#   Ebm
Bbm   Ab   F#   F#

[Hook]
"Whenever I feel far from home..."
eb|-----------x-----------x-----------x-----------x-----|
Bb|-----------x-----------x-----------x-----------x-----|
F#|-----------x-----------x-----------x-----------x-----|
C#|--------4--x-4---5-----x--------4--x-4---5-----x-----|
Ab|-----------x-----------x-----------x-----------x-----|
C#|-----0-----x-0---0-----x--------0--x-0---0-----x-----|
         
"You are the calm before my storm..."
eb|-----------x-----------x-----------x-----------x-----|
Bb|-----------x-----------x-----------x-----------x-----|
F#|-----------x-----------x-----------x-----------x-----|
C#|--------4--x-4---5-----x--------4--x-4---5-----x-----|
Ab|-----------x-----------x-----------x-----------x-----|
C#|-----0-----x-0---0-----x--------0--x-0---0-----x-----|

[Final Chorus]
           C#             
Whenever I feel far from home
          
Facing the world on my own
            Bbm         
You are the calm in my storm
      
You are the light
                                 Ab
You are the light that's guiding me

The only one I see
               F#
The only one I need

You're my gravity

[Outro]
eb|-----------x-----------x-----------x-----------x-----|
Bb|-----------x-----------x-----------x-----------x-----|
F#|-----------x-----------x-----------x-----------x-----|
C#|--------4--x-4---5---5-x-5------4--x-4---5---5-x-5p4-|
Ab|-----------x-----------x-----------x-----------x-----|
C#|-----0-----x-0---0-----x-0----0----x-0---0-----x-0---|

eb|-----------x-----------x-----------x-----------x-----|
Bb|-----------x-----------x-----------x-----------x-----|
F#|-----------x-----------x-----------x-----------x-----|
C#|--------4--x-4---5---5-x-5------4--x-4---5---5-x-5p4-|
Ab|-----------x-----------x-----------x-----------x-----|
C#|-----0-----x-0---0-----x-0----0----x-0---0-----x-0---|

eb|-----------|
Bb|-----------|
F#|-----------|
C#|-----4-----|
Ab|-----0-----|
C#|-----0-----|

************************************

| /   slide up
| \   slide down
| h   hammer-on
| p   pull-off
| ~   vibrato
| +   harmonic
| x   Mute note
| b   Bend
| pb  Pre-bend
| br  Bend release
| pbr Pre-bend release
| brb Bend release bend

************************************
Suggest correction
Creating personal tab
Creating personal tab
You can edit any tab online and save it as your Personal.

You can edit, replace or remove any tab part or add personal notes – all changes will be seen only by you.

Personal tabs can be accessed anytime from any device, even offline.
Learn more »
Give kudos to tab author, rate the tab!
1 2 3 4 5
comments
print report bad tab
guest
You may want to rate the tab now too:
select rating
Wanna post a correction for this tab? Suggest correction