Oops, an error
Loading. Please wait.

Better Man chords

version 1
version 1

Whole song

9,833 views 27 this week
2 commentsread comments
1 2 3 4 5
1 last vote to show rating
add to favorites
×
Save as Personal and add changes to this tab that will be seen only by you. Learn more ›
×
You can save this tab as Personal to edit and correct it or add notes. All changes will be seen only by you. Learn more »
launch autoscroll
font size
0
reset
transpose
0
reset
display chords
guitar tuner
edit
Autoscroll
slow
fast
+/-
esc
set tempo
stop
Author
Strumming
There is no strumming pattern for this song yet. and get +5 IQ
-------------------------------------------------------------------------------
                             Better Man - Leon Bridges
-------------------------------------------------------------------------------
Tabbed by: MrForbesy

Tuning: Standard

    F#  D   C  Am  Am   C
e|--3---2---0---0---5---8--|
B|--3---3---1---1---5---8--|
G|--4---2---0---2---5---9--|
D|--5---0---2---2---7---10-|
A|--5---0---3---0---7---10-|
E|--3---0---0---0---5---8--|

Play Am on the 5th fret for the chorus and the traditional Am (012200) for the rest of the song
Play C on the 8th fret for the chorus and the traditional C (010230) for the rest of the song.


[Intro]

e|-----------|
B|-----------|
G|-----------|
D|-----------|
A|-3-0-3-0---|
E|---------3-|

F# F# D C
F# F#

e|--------------------|
B|--------------------|
G|--------------------|
D|--------------9-7-5-|
A|------------7-------|
E|-7-5-7-8-10---------|


[Verse 1]

                   F#                        D    C         F#  Am  C
Well I don't want much, I just wanna be a better man to my baby
              F#                                D    C                  F#    Am  C
Meet me off good luck, I was singing with them Jezebels under perfume sheets
               F#     D        C
Got a golden smile, heart overflow
               F#           Am          C
But got us in love, but it wasn't enough


[Chorus]

            F#             Am  C
What can I do? What can I do?
        F#
To get back to your heart
               Am               C
I'd swim the Mississippi River
              F#
If you would give me another start, girl

e|-----------|
B|-----------|
G|-----------|
D|-----------|
A|-3-0-3-0---|
E|---------3-|

F# F# D C
F# F#

e|--------------------|
B|--------------------|
G|--------------------|
D|--------------9-7-5-|
A|------------7-------|
E|-7-5-7-8-10---------|


[Verse 2]

           F#              D                   C
All night long I was out, out til the morning
                F#     Am                  C
But baby your tender love's what I'm longing
        F#                          D      C
Baby, please, I'm down on my knees begging
    F#                             Am            C
I thirst for you girl, baby I'm running to your well


[Chorus]

            F#             Am  C
What can I do? What can I do?
        F#
To get back to your heart
               Am               C
I'd swim the Mississippi River
              F#
If you would give me another start, girl

e|-----------|
B|-----------|
G|-----------|
D|-----------|
A|-3-0-3-0---|
E|---------3-|

F# F# D C
F# F#

e|--------------------|
B|--------------------|
G|--------------------|
D|--------------9-7-5-|
A|------------7-------|
E|-7-5-7-8-10---------|


[Chorus]

            F#             Am  C
What can I do? What can I do?
        F#
To get back to your heart
               Am               C
I'd swim the Mississippi River

F#                        Am  C
What can I do? What can I do?
        F#
To get back to your heart
              Am                C
I'd swim the Mississippi River
              F#
If you would give me another start, girl

            
            
Suggest correction
Creating personal tab
Creating personal tab
You can edit any tab online and save it as your Personal.

You can edit, replace or remove any tab part or add personal notes – all changes will be seen only by you.

Personal tabs can be accessed anytime from any device, even offline.
Learn more »
Give kudos to tab author, rate the tab!
1 2 3 4 5
comments
print report bad tab
2 comments total.
0 reply
enigm0 52 Oct 19, 2015 10:57 PM

-------------------------------------------------------------------------------
Better Man - Leon Bridges
-------------------------------------------------------------------------------
Tabbed by: MrForbesy

Tuning: Standard

G D C Am Am C
e|--3---2---0---0---5---8--|
B|--3---3---1---1---5---8--|
G|--4---2---0---2---5---9--|
D|--5---0---2---2---7---10-|
A|--5---0---3---0---7---10-|
E|--3---0---0---0---5---8--|

Play Am on the 5th fret for the chorus and the traditional Am (012200) for the rest of the song
Play C on the 8th fret for the chorus and the traditional C (010230) for the rest of the song.

(Intro)
e|-----------|
B|-----------|
G|-----------|
D|-----------|
A|-3-0-3-0---|
E|---------3-|

F# F# D C

F# F#

e|--------------------|
B|--------------------|
G|--------------------|
D|--------------9-7-5-|
A|------------7-------|
E|-7-5-7-8-10---------|

(Verse 1)
G D C G Am C
Well I don't want much, I just wanna be a better man to my baby, Mmmhhh
G D C G Am C
Meet me off good luck, I was singing with them Jezebels under perfume sheets, Mmmhh
G D C
Got a golden smile, heart overflow
G Am C
But got us in love, but it wasn't enough

(Chorus)
G Am C
What can I do? What can I do?
G
To get back to your heart
Am C
I'd swim the Mississippi River
G
If you would give me another start, girl

e|-----------|
B|-----------|
G|-----------|
D|-----------|
A|-3-0-3-0---|
E|---------3-|

G G D C

G G

e|--------------------|
B|--------------------|
G|--------------------|
D|--------------9-7-5-|
A|------------7-------|
E|-7-5-7-8-10---------|

(Verse 2)
G D C
All night long I was out, out til the morning
G Am C
But baby your tender love's what I'm longing
G D C
Baby, please, I'm down on my knees begging
G Am C
Oooooh I thirst for you girl, baby I'm running to your well

(Chorus)
G Am C
What can I do? What can I do?
G
To get back to your heart
Am C
I'd swim the Mississippi River
G
If you would give me another start, girl

e|-----------|
B|-----------|
G|-----------|
D|-----------|
A|-3-0-3-0---|
E|---------3-|

G G D C

G G

e|--------------------|
B|--------------------|
G|--------------------|
D|--------------9-7-5-|
A|------------7-------|
E|-7-5-7-8-10---------|

(Chorus)
G Am C
What can I do? What can I do?
G
To get back to your heart
Am C
I'd swim the Mississippi River

G Am C
What can I do? What can I do?
G
To get back to your heart
Am C
I'd swim the Mississippi River
G
If you would give me another start, girl

0 reply
enigm0 52 Oct 19, 2015 11:00 PM

-------------------------------------------------------------------------------
Better Man - Leon Bridges
-------------------------------------------------------------------------------
Tabbed by: MrForbesy

Tuning: Standard

G D C Am Am C
e|--3---2---0---0---5---8--|
B|--3---3---1---1---5---8--|
G|--4---2---0---2---5---9--|
D|--5---0---2---2---7---10-|
A|--5---0---3---0---7---10-|
E|--3---0---0---0---5---8--|

Play Am on the 5th fret for the chorus and the traditional Am (012200) for the rest of the song
Play C on the 8th fret for the chorus and the traditional C (010230) for the rest of the song.

(Intro)
e|-----------|
B|-----------|
G|-----------|
D|-----------|
A|-3-0-3-0---|
E|---------3-|

F# F# D C

F# F#

e|--------------------|
B|--------------------|
G|--------------------|
D|--------------9-7-5-|
A|------------7-------|
E|-7-5-7-8-10---------|

(Verse 1)
G D C G Am C
Well I don't want much, I just wanna be a better man to my baby, Mmmhhh
G D C G Am C
Meet me off good luck, I was singing with them Jezebels under perfume sheets, Mmmhh
G D C
Got a golden smile, heart overflow
G Am C
But got us in love, but it wasn't enough

(Chorus)
G Am C
What can I do? What can I do?
G
To get back to your heart
Am C
I'd swim the Mississippi River
G
If you would give me another start, girl

e|-----------|
B|-----------|
G|-----------|
D|-----------|
A|-3-0-3-0---|
E|---------3-|

G G D C

G G

e|--------------------|
B|--------------------|
G|--------------------|
D|--------------9-7-5-|
A|------------7-------|
E|-7-5-7-8-10---------|

(Verse 2)
G D C
All night long I was out, out til the morning
G Am C
But baby your tender love's what I'm longing
G D C
Baby, please, I'm down on my knees begging
G Am C
Oooooh I thirst for you girl, baby I'm running to your well

(Chorus)
G Am C
What can I do? What can I do?
G
To get back to your heart
Am C
I'd swim the Mississippi River
G
If you would give me another start, girl

e|-----------|
B|-----------|
G|-----------|
D|-----------|
A|-3-0-3-0---|
E|---------3-|

G G D C

G G

e|--------------------|
B|--------------------|
G|--------------------|
D|--------------9-7-5-|
A|------------7-------|
E|-7-5-7-8-10---------|

(Chorus)
G Am C
What can I do? What can I do?
G
To get back to your heart
Am C
I'd swim the Mississippi River

G Am C
What can I do? What can I do?
G
To get back to your heart
Am C
I'd swim the Mississippi River
G
If you would give me another start, girl

guest
You may want to rate the tab now too:
select rating
Wanna post a correction for this tab? Suggest correction