Oops, an error
Loading. Please wait.

Lazy Days Tab

252 views 1 this week
no commentswrite comment
1 2 3 4 5
3 more votes to show rating
add to favorites
launch autoscroll
font size
0
reset
how to read this tab
guitar tuner
Autoscroll
slow
fast
+/-
esc
set tempo
stop
Help us to improve Ultimate-Guitar.com Take our survey!
×
Author
Difficulty
intermediate
-------------------------------------
LAZY DAYS - Leona Naess 
-------------------------------------
Tabbed by: xRebeccaRuthx
Tuning: Standard 

Intro/Verse:

    E (/Emaj7)            C#m7
e|--x---x---x---x---x-----4--4--4--4--4--4--|
B|--x---x---x---x---x-----5--5--5--5--5--5--|
G|--1---1---1---1---1-----4--4--4--4--4--4--|
D|--2-h-1-h-2-h-1-h-2-----6--6--6-h4--4-h6--|
A|--2---2---2---2---2-----4--4--4--4--4--4--|
E|--0---0---0---0---0-----4--4--4--4--4--4--|

    E (/Emaj7)            A
e|--x---x---x---x---x-----0--0--0--0--0--0--|
B|--x---x---x---x---x-----2--2--2--2--2--2--|
G|--1---1---1---1---1-----2--2--2--2--2--2--|
D|--2-h-1-h-2-h-1-h-2-----2--2--2--2--2--2--|
A|--2---2---2---2---2-----0--0--0--0--0--0--|
E|--0---0---0---0---0-----0--0--0--0--0--0--|


Chorus:


             C#m       B         A                      B
e|-----------4--4------2--2------0--------------:|    --2--
B|-----------5--5------4--4------2--------------:|    --4--
G|-----------6--6------4--4------2--------------:|    --4--
D|-----------6--6------4--4------2--------------:|x3  --4--
A|-----------4--4------2--2------0--------------:|then--2--
E|-----------4--4------2--2------0--------------:|    --2--
Soak up some La........aa..zy....Days
no one can   rain  on  our  par..ade
stand here benea.....aaaath  the shade...............of our


   E                  C#m              B
e|--------------------12--12-11--11-12------------------|
B|-7-9-7-9--7-9-7-9-12-----------------12--12-10--10-12-|
G|------------------------------------------------------|x2
D|------------------------------------------------------|
A|------------------------------------------------------|
E|------------------------------------------------------|
  love....

A             B           C#m             B      
Wide eyed and stupid, I'm waiting for the arrows of cupid
A             B           C#m             B      
Wide eyed and stupid, I'm waiting for the arrows of your..



Thank You! Happy Strumming! :)


Chords 
E: 022100 
Emaj7:021100 
C#m7: 446456 
C#m: 446656 
A: 002220 
B: 224442
************************************
h = hammer-on  ************************************
Suggest correction
Give kudos to tab author, rate the tab!
1 2 3 4 5
comments
print report bad tab
guest
You may want to rate the tab now too:
select rating
Wanna post a correction for this tab? Suggest correction