Oops, an error
Loading. Please wait.

West Side Story Bass Tab

4,172 views 6 this week
no commentswrite comment
1 2 3 4 5
please rate
add to favorites
launch autoscroll
font size
0
reset
guitar tuner
Autoscroll
slow
fast
+/-
esc
set tempo
stop
Help us to improve Ultimate-Guitar.com Take our survey!
×
Author
Difficulty
intermediate
Tabbed By- Ethan Haynes aka. MeAndMyGuitar13
e-mail- heyhihigerald@yahoo.com

Tuning- (G,D,A,E)
||=end of prelude/song             Themese from "Maria"
( )=triplet                                       "One Hand, One Heart"
*=repeat                                            "Cool" & "Somewhere"

Prelude:
G|-7-0-------------------0-------------4-6-7---2-6-8-9------||
D|-----0---4-2-(4-2-0)-----------0-0-4-------2---------3-1-3||
A|---------------------3---3-3-2----------------------------||
E|-------3--------------------------------------------------||

"Maria"
G|-0-6-7---0-6-7---0-6-7---0-6-7-----6-7---0-7---2-7---0-6-7---0-6-7---0-6-7|
D|-------0-------0-------0-------0-4-----4-----0-----0-------0-------0------|
A|--------------------------------------------------------------------------|
E|--------------------------------------------------------------------------|


G|-----6-7-----7-7-----4-----------0---0-----4-5---0-7---0-2---0---0--------|
D|-0-4-----4-2-------2-----4-2-0-----------4-----3-----0-----0---0---2-0----|
A|-----------------2-----2-------3---3---2-------------------------------3-2|
E|--------------------------------------------------------------------------|


G|-----0---------2---------0-0---0-0---0-----0---------------2-4-2---------2|
D|-3-2---0---0-2---0---0-0-----0-----0---2-4---2---3-2-0---4-------2---0-2--|
A|---------3---------3---------------------------2-------3-----------3------|
E|--------------------------------------------------------------------------|

                                                       *from d0-g7-g1
G|-2-4-2-0---------0-0---0-0-0-0-0-0-0-0-0---1-1-1-2-1-----7-1--------------|
D|---------3-0---0-----0-------------------0-----------0-0-----0---0---0-4--|
A|-------------3-----------------------------------------------------2-----2|
E|---------------------------------------------------------------4----------|
                                                         mf

G|---0-----0---0-0-6-7-0-----0-0------0-0-----0-------0-2-2-----2-2---2---0-|
D|-0---------0-----------0-0------0-0-----0-0---3-0-3-------0-0-----0---0---|
A|-------3------------------------------------------------------------------|
E|-----4--------------------------------------------------------------------|

  *back to d0-g7-g1
G|-2-----0-0-----0-0-------3-----1-7-1---1-2-1-------1-2-1-1-----1-2-1------|
D|---0-0-----0-0---------------0-------0-------0---0---------0-0-------0---0|
A|-------------------4-4-4---1-------------------0-----------------------0--|
E|--------------------------------------------------------------------------|

                                                            "A little slower"
G|-1-2-1-1---7-1---1-----------7-5---4---------------3-----0-0--------------|
D|---------0-----0---0-0-0-0-0-----0---2-0---3-2-0-3---1--------------------|
A|-----------------------------------------3-------------3------------------|
E|-------------------------------------------------------------3-3-3-3-3-3--|

     "Slower still"
G|----------------||
D|----------------||
A|---0-0-0-0-0-0-0||
E|-3--------------||
Suggest correction
Give kudos to tab author, rate the tab!
1 2 3 4 5
comments
print report bad tab
guest
You may want to rate the tab now too:
select rating
Wanna post a correction for this tab? Suggest correction