Oops, an error
Loading. Please wait.

Avalanche Tab

version 1
version 1

Whole song

Interactive

41,319 views 165 this week
5 commentsread comments
1 2 3 4 5
x 11
add to favorites
launch autoscroll
font size
0
reset
how to read this tab
guitar tuner
Autoscroll
slow
fast
+/-
esc
set tempo
stop
Help us to improve Ultimate-Guitar.com Take our survey!
×
Author
Difficulty
intermediate
Avalanche
(Leonard Cohen)

From the album : Songs Of Love And Hate (1971)
Transcribed by korelys 

Tuning (lowest string first) : CFA#D#GC
You can use standard EADGBE tuning (song will start in A m)


Fm
[Intro]
---------------------------(0)---(0)---(0)---(0)|   middle
----1-----1-----1-----1-----1-----1-----1-----1-|   middle
--2-----2-----2-----2-----2-----2-----2-----2---|   index
------2-----------2-----------2-----------2-----|   thumb
0-----------------------0-----------------------|   thumb
------------0-----------------------0-----------|   thumb


Fm
well I stepped into an                             
-----------------------------------------------|
----1-----1-----1-----1-----1-----1-----1-----0|
--2-----2-----2-----2-----2-----2-----2-----0--|
------2-----------2-----------2-----------0----|
0-----------0-----------0-----------0----------|
-----------(0)---------------------(0)---------|


C#
avalanche
-----------------------------------------------|
----1-----1-----1-----1-----1-----1-----1-----0|
--2-----2-----2-----2-----2-----2-----2-----0--|
------3-----------3-----------3-----------0----|
------------3-----------3-----------3----------|
1----------------------(1)---------------------|


Fm                     D#
it covered              up my
-----------------------------------------------|
----1-----1-----1-----1-----0-----0-----0-----0|
--2-----2-----2-----2-----0-----0-----0-----0--|
------2-----------2-----------0-----------0----|
0-----------0----------------------(2)---------|
------------------------3-----------3----------|


Fm
soul
-----------------------------------------------|
----1-----1-----1-----1-----1-----1-----1-----1|
--2-----2-----2-----2-----2-----2-----2-----2--|
------2-----------2-----------2-----------2----|
0-----------0-----------0-----------0----------|
-----------(0)---------------------(0)---------|


G#
you who wish to
-----------------------------------------------|
----1-----1-----1-----1-----1-----1-----1-----1|
--0-----0-----0-----0-----0-----0-----0-----0--|
------2-----------2-----------2-----------2----|
3-----------3-----------3-----------3----------|
-----------(3)---------------------------------|


C7
conquer pain, you must
-----------------------------------------------|
----0-----0-----0-----0-----0-----0-----0-----0|
--1-----1-----1-----1-----1-----1-----1-----1--|
------0-----------0-----------0-----------0----|
2-----------2-----------2-----------2----------|
-----------(0)---------------------------------|


Fm
learn, learn to serve me
-----------------------------------------------|
----1-----1-----1-----1-----1-----1-----1-----1|
--2-----2-----2-----2-----2-----2-----2-----2--|
------2-----------2-----------2-----------2----|
0-----------0-----------0-----------0----------|
-----------(0)---------------------------------|


C#
well
-----------------------------------------------|
----1-----1-----1-----1-----1-----1-----1-----1|
--2-----2-----2-----2-----2-----2-----2-----2--|
------3-----------3-----------3-----------3----|
------------3-----------3-----------3----------|
1----------------------(1)---------------------|


C#maj7b5
---------------------------(0)---(0)---(0)---(0)|
----0-----0-----0-----0-----0-----0-----0-----0-|
--2-----2-----2-----2-----2-----2-----2-----2---|
------3-----------3-----------3-----------3-----|
-----------(2)---------------------(2)----------|
0-----------0-----------0-----------0-----------|


C
----0-----0-----0-----0-----0-----0-----0-----0-|   middle finger brushes
----0-----0-----0-----0-----0-----0-----0-----0-|      both strings
--1-----1-----1-----1-----1-----1-----1-----1---|
------2-----------2-----------2-----------2-----|
-----------(2)---------------------(2)----------|
0-----------0-----------0-----------0-----------|



************************************

| (n)  Ghost note

************************************
Suggest correction
comments
print report bad tab
5 comments total. Showing first comments.
0 reply
Pirlouit 10 Sep 22, 2007 06:10 PM

That's it EXACTLY !! Try nylon strings.
Start slowly then speed up 'til it sounds like a bumble-bee.

+2 reply
Havenspear 103 Mar 13, 2008 01:58 AM

Man, this song is going to take a LOT of practice...

0 reply
tipplers 10 Sep 08, 2008 02:13 PM

yeah i love this do you gotta book ?

guest
You may want to rate the tab now too:
select rating
Wanna post a correction for this tab? Suggest correction