Oops, an error
Loading. Please wait.

Nevermind chords

7,240 views 30 this week
1 commentread comment
1 2 3 4 5
x 4
add to favorites
×
Save as Personal and add changes to this tab that will be seen only by you. Learn more ›
×
You can save this tab as Personal to edit and correct it or add notes. All changes will be seen only by you. Learn more »
launch autoscroll
font size
0
reset
transpose
0
reset
display chords
guitar tuner
edit
Autoscroll
slow
fast
+/-
esc
set tempo
stop
Author
Strumming
There is no strumming pattern for this song yet. and get +5 IQ
Leonard Cohen - Nevermind

Chords
Bm: x24432
G:  320003


Figure for the chorus

   Bm   3x  

e|--2--2--2--x-----3-x-3--------------------|
B|--3--3--3--x-----0-x-0--------------------|
G|--4--2--4--x-----0-x-0--------------------|
D|--4--4--4--x-----0-x-0--------------------|
A|--2--2--2--x-----2-x-2--------------------|
E|--x--------------3-x-3--------------------|

Bm
The war was lost
The treaty signed
I was not caught
   G
I crossed the line

I was not caught
Though many tried
I live among you
Well disguised

I had to leave
My life behind
I dug some graves
You’ll never find

The story’s told
With facts and lies
I had a name
But never mind

Never mind
Never mind
The war was lost
The treaty signed

There’s truth that lives
And truth that dies
I don’t know which
So never mind

Your victory
Was so complete
That some among you
Thought to keep

A record of
Our little lives
The clothes we wore
Our spoons our knives

The games of luck
Our soldiers played
The stones we cut
The songs we made

Our law of peace
Which understands
A husband leads
A wife commands

And all of this
Expressions of
The Sweet Indifference
Some call Love

The High Indifference
Some call Fate
But we had Names
More intimate

Names so deep and
Names so true
They’re blood to me
They’re dust to you

There is no need
That this survive
There’s truth that lives
And truth that dies

Never mind
Never mind
I live the life
I left behind

There’s truth that lives...

I could not kill
The way you kill
I could not hate
I tried I failed

You turned me in
At least you tried
You side with them
Whom you despise

This was your heart
This swarm of flies
This was once your mouth
This bowl of lies

You serve them well
I’m not surprised
You’re of their kin
You’re of their kind

Never mind
Never mind
The story’s told
With facts and lies
You own the world
So never mind

Never mind
Never mind
I live the life
I left behind

I live it full
I live it wide
Through layers of time
You can’t divide

My woman’s here
My children too
Their graves are safe
From ghosts like you

In places deep
With roots entwined
I live the life I left behind

            
            
Suggest correction
Creating personal tab
Creating personal tab
You can edit any tab online and save it as your Personal.

You can edit, replace or remove any tab part or add personal notes – all changes will be seen only by you.

Personal tabs can be accessed anytime from any device, even offline.
Learn more »
comments
print report bad tab
1 comment total.
0 reply
ovrob 10 Aug 23, 2015 01:29 PM, edited at 05:37 pm

Thanks for this, easy song but I'm sure beginners like me appreciate you laying it out for us.

If you want to play the bassline on your guitar, this sounds alright I think

e|------------------------------------------|
B|------------------------------------------|
G|------------------------------------------|
D|------------------------------------------|
A|------------------------------------------|
E|---7-7-5-7---5-7-5---7-5-10---------------| Palm Muted

e|------------------------------------------|
B|------------------------------------------|
G|------------------------------------------|
D|------------------------------------------|
A|-------------------------5-----------------|
E|---7-7-5-7---5-7-5-----5-7---------------| Palm Muted

guest
You may want to rate the tab now too:
select rating
Wanna post a correction for this tab? Suggest correction