Oops, an error
Loading. Please wait.

Tower Of Song Bass Tab

version 1
version 1

Whole song

  • Making references this way, makes the file conside... Show more

Interactive

37 views 6 this week
no commentswrite comment
1 2 3 4 5
3 more votes to show rating
add to favorites
launch autoscroll
font size
0
reset
guitar tuner
Autoscroll
slow
fast
+/-
esc
set tempo
stop
Help us to improve Ultimate-Guitar.com Take our survey!
×
Author
About this tab version
Making references this way, makes the file considerably smaller and faster to learn. These few references make up the entire song. Was this info helpful? Yes No
Gtr I (E A D G) - 'Tower of Song, Leonard Cohen with U2'
https://www.youtube.com/watch?v=msCauwkW490

Q=104Bpm  4/4

C=
 
   Q  Q.   e e e   q  E Q  E Q
G|---------------|------3-------|
D|---------------|-----------5--|
A|-3-----------2-|-3------------|
E|---------3-5---|--------------|


F=

   Q  Q.   e e e   q  E Q  E Q
G|---------------|------2-------|
D|-3-----------2-|-3---------3--|
A|---------3-5---|--------------|
E|---------------|--------------|


 G=
   Q  Q.   e e e   q  H    Q
G|---------------|---------5--|
D|-5-----------5-|-3----------|
A|---------5-7---|------------|
E|---------------|------------|


F1=

   Q  Q.   e e e   q  E Q  E q
G|---------------|------7-------|
D|-3-----------2-|-3---------9--|
A|---------3-5---|--------------|
E|---------------|--------------|

F2=

   Q  Q.   e e e   q  H    Q
G|---------------|---------5--|
D|-3-----------2-|-3----------|
A|---------3-5---|------------|
E|---------------|------------|

Ending=

   Q  Q.   e e e   q  H    Q    q  Q.   e e e   q    H  E e
G|---------------|---------5--|---------------|---------7---|
D|---------------|-5----------|---------------|-5---------9-|
A|-3-----------2-|------------|-3-----------2-|-------------|
E|---------3-5---|------------|---------3-5---|-------------|

   Q H.
G|---------|
D|---------|
A|---------|
E|-3-------|


-------------------------------------------------------------


Start Song Here:

C       C
C       C
F       C
G       C
C       C
F       C
G       C
C       F1
Ending
C       C
F2      C
G       C
C       C
F2      C
G       C
C       C
Ending
C       C
F       C
G       C


BONO:


   H    E e e e   Q  H.        Q  Q.   e e e   Q  H.
G|--------------|------------|---------------|----------|
D|--------------|------------|---------------|----------|
A|------------2-|------------|-------------2-|----------|
E|-5------3-5---|-3----------|-5-------3-5---|-3--------|


   Q  Q.   e e e   q  E Q  E Q    Q  Q.   e e e   q  E Q  E q
G|---------------|------2-------|---------------|------3-------|
D|-3-----------2-|-3---------3--|---------------|-----------5--|
A|---------3-5---|--------------|-3-----------2-|-3------------|
E|---------------|--------------|---------3-5---|--------------|


   Q  Q.   e e e   q  E Q  E Q    Q Q.    e e e   q  H    Q
G|---------------|------7-------|---------------|------------|
D|---------------|-----------9--|---------------|------------|
A|-------------2-|--------------|-------------2-|---------5--|
E|-5-------3-5---|-3------------|-5-------3-5---|-3----------|


   Q  Q.   e e e   q  E Q  E Q    Q  Q.   e e e   q  Q.   E Q
G|---------------|------5-------|---------------|--------------|
D|-3-----------2-|-3---------3--|-5-----------4-|-5-------5-3--|
A|---------3-5---|--------------|---------5-7---|--------------|
E|---------------|--------------|---------------|--------------|


C       C
F2      C
G       C
C       F1
Ending
C       C
F!      C
G       C
C       C


Please Note: duration and timing of the notes requires sharp listening, this can't
be read from these tabs, how accurate they are.


Duration Legend
---------------
W - whole; H - half; Q - quarter; E - 8th; S - 16th; T - 32nd; X - 64th; a - acciaccatura
+ - note tied to previous; . - note dotted; .. - note double dotted
Uncapitalized letters represent notes that are staccato (1/2 duration)
Irregular groupings are notated above the duration line
Duration letters will always appear directly above the note/fret number it represents the
duration for.  Duration letters with no fret number below them represent rests.  Multi-
bar rests are notated in the form Wxn, where n is the number of bars to rest for.  Low
melody durations appear below the staff


Tabbed by Hans Friendly
Suggest correction
Give kudos to tab author, rate the tab!
1 2 3 4 5
comments
print report bad tab
guest
You may want to rate the tab now too:
select rating
Wanna post a correction for this tab? Suggest correction