Oops, an error
Loading. Please wait.

A Church In Ruins Tab

70 views 3 this week
no commentswrite comment
1 2 3 4 5
3 more votes to show rating
add to favorites
launch autoscroll
font size
0
reset
how to read this tab
guitar tuner
Autoscroll
slow
fast
+/-
esc
set tempo
stop
Help us to improve Ultimate-Guitar.com Take our survey!
×
Author
Difficulty
Capo
intermediate
5th fret
Live in Dallas, TX; Sept. 15, 2015: https://www.youtube.com/watch?v=oO5b5LiWKj0

[Intro] 
 e|-------------------------------------------------|
 B|-------------------------------------------------|
 G|--1-----2-----1-----2----------------------------|
 D|--2-----2-----2-----2----------------------------|
 A|-------------------------------------------------|
Db|0-----0-----0-----0---------------2-3-2-0--------|
 
[Verse]
 e|-------------------------------------------------|
 B|-------------------------------------------------|
 G|-------------------------------------------------|
 D|----3-2-3-2-0---0-2-3-2---3-2-3-2-0-0--0---------|
 A|----2-2-2-2-2---2-2-2-2---2-2-2-2-2-0--0---------|
Db|-0-----------------------------------------3-2-0-|
You were alone and you were alive
Among the walking dead
He was a liar, would not atone
Still he went to your head

[Chorus]
 e|----5---7---5---7---5---7---5--------------------|
 B|----5---7---5---7---5---7---5--------------------|
 G|----5---7---5---7---5---7---5--------------------|
 D|----5---7---5---7---5---7---5-(let ring)---------|
 A|-------------------------------------------------|
Db|------------------------------------------3-2-0--|
He said, I love you baby like a miner loves gold,
and this will never grow old

[Verse]
 e|-------------------------------------------------|
 B|-------------------------------------------------|
 G|-------------------------------------------------|
 D|----3-2-3-2-0---0-2-3-2---3-2-3-2-0-0--0---------|
 A|----2-2-2-2-2---2-2-2-2---2-2-2-2-2-0--0---------|
Db|-0-----------------------------------------3-2-0-|
Lost in the ether, down in the blind 
and not a word was said
but he was neither vicious or kind
as he laid there and bled

[Instrumental]
 e|-------------------------------------------------|
 B|-------------------------------------------------|
 G|--1-----2-----1-----2----------------------------|
 D|--2-----2-----2-----2----------------------------|
 A|-------------------------------------------------|
Db|0-----0-----0-----0---------------2-3-2-0--------|

 e|-------------------------------------------------|
 B|-------------------------------------------------|
 G|-------------------------------------------------|
 D|----3-2-3-2-0---0-2-3-2---3-2-3-2-0-0--0---------|
 A|----2-2-2-2-2---2-2-2-2---2-2-2-2-2-0--0---------| x2
Db|-0-----------------------------------------3-2-0-|

[Chorus]
 e|----5---7---5---7---5---7---5--------------------|
 B|----5---7---5---7---5---7---5--------------------|
 G|----5---7---5---7---5---7---5--------------------|
 D|----5---7---5---7---5---7---5-(let ring)---------|
 A|-------------------------------------------------|
Db|------------------------------------------3-2-0--|
His hands were on you and it felt just the same
as when he didn't know your name
and he said, I love you baby like a miner loves gold 
and this will never grow old

[Verse]
 e|-------------------------------------------------|
 B|-------------------------------------------------|
 G|-------------------------------------------------|
 D|----3-2-3-2-0---0-2-3-2---3-2-3-2-0-0--0---------|
 A|----2-2-2-2-2---2-2-2-2---2-2-2-2-2-0--0---------|
Db|-0-----------------------------------------3-2-0-|
Darkness will cover
a church in ruins
there's nothing left to feel
Goodbye lover, this is your doing
a heart against the wheel

[Outro]
 e|-------------------------------------------------|
 B|-------------------------------------------------|
 G|--1-----2-----1-----2----------------------------|
 D|--2-----2-----2-----2----------------------------|
 A|-------------------------------------------------|
Db|0-----0-----0-----0---------------2-3-2-0--------|
(let final open note ring)
Suggest correction
Give kudos to tab author, rate the tab!
1 2 3 4 5
comments
print report bad tab
guest
You may want to rate the tab now too:
select rating
Wanna post a correction for this tab? Suggest correction