Oops, an error
Loading. Please wait.

Drive chords

382 views 6 this week
2 commentsread comments
1 2 3 4 5
3 more votes to show rating
add to favorites
×
Save as Personal and add changes to this tab that will be seen only by you. Learn more ›
×
You can save this tab as Personal to edit and correct it or add notes. All changes will be seen only by you. Learn more »
launch autoscroll
font size
0
reset
transpose
0
reset
display chords
guitar tuner
edit
Autoscroll
slow
fast
+/-
esc
set tempo
stop
Author
Strumming
There is no strumming pattern for this song yet. and get +5 IQ
[Verse]

C#m    A
It's late
C#m          A
too late to run
C#m        Bm                  E
Besides, this night ain't the one
C#m        A             C#m      A
You could say I turned my eyes blind
C#m        Bm                    E
You could say I'm the desperate kind


[Chorus]

D                      Bm
I've been watching the line
     A                F#m
But nothing's passin' by
D                      Bm
I've been keeping the time 
        A             F#m
Like by it I live and die
D                       Bm
Feels like the end of the road
               E       D       A
But there is just one way to know
C#m                F#m
Driiiiiiiiiiiiiiiiiiive
C#m                 E
Driiiiiiiiiiiiiiiiiiive


[Verse]

C#m       A  
Portrait made but 
C#m     A
overblown
C#m          Bm                 E
The curtain pulled was crooked stone
C#m          A         C#m       A
Leave me to lie in my fruitless dreams
C#m          Bm            E
It's not as simple as it seems


[Chorus]

D                      Bm
I've been watching the line
     A                F#m
But nothing's passin' by
D                      Bm
I've been keeping the time 
        A             F#m
Like by it I live and die
D                        Bm
Feels like the end of the road
              E       D       A
But there is just one way to know
C#m                F#m
Driiiiiiiiiiiiiiiiiiive
C#m                F#m
Driiiiiiiiiiiiiiiiiiive
C#m                F#m
Driiiiiiiiiiiiiiiiiiive
C#m                F#m
Driiiiiiiiiiiiiiiiiiive


[Solo]
(same pattern as the "driiiive" parts)

C#m F#m
C#m F#m
E   Bm
E   F#m


Or, if you'd prefer to play the solo:
(over end of chorus)
e|-----------------------------------------------|
B|--7h9h7------7h9h7-------7h9h7---5-------------|
G|-------------------------------------6h8h6-----|
D|-----------------------------------------------|
A|-----------------------------------------------|
E|-----------------------------------------------|
(solo, repeat 3x)
e|------------------------------------------------------|
B|--7/9---9-9/7---7-7\5---5-5\4----4-4/2----2-2/7-7h9h7-|
G|------------------------------------------------------|
D|------------------------------------------------------|
A|------------------------------------------------------|
E|------------------------------------------------------|
(fourth time, add this after)
e|-----------------------------------------------|
B|--9/12----------9\7-------------9\5------------|
G|-----------------------------------------------|
D|-----------------------------------------------|
A|-----------------------------------------------|
E|-----------------------------------------------|


[Chorus]

D                      Bm
I've been watching the line
     A                F#m
But nothing's passin' by
D                      Bm
I've been keeping the time 
         A             F#m
(Like by it I live and die?)
D                         Bm
Feels like the end of the road
              E       D       A
But there is just one way to know
C#m                F#m
Driiiiiiiiiiiiiiiiiiive
C#m                F#m
Driiiiiiiiiiiiiiiiiiive

(repeat these last two lines until end of song)


**********************************************
| h    hammer-on
| \    slide down
| /    slide up
**********************************************

            
            
Suggest correction
Creating personal tab
Creating personal tab
You can edit any tab online and save it as your Personal.

You can edit, replace or remove any tab part or add personal notes – all changes will be seen only by you.

Personal tabs can be accessed anytime from any device, even offline.
Learn more »
Give kudos to tab author, rate the tab!
1 2 3 4 5
comments
print report bad tab
2 comments total.
0 reply
erhanekmen 167 May 12, 2016 12:19 PM, edited at 04:23 pm

Like by it I live and die
D Bm
Feels like the end of the road
E D A
But there's just one way to know

The lyrics and 1 chord are changed.

guest
You may want to rate the tab now too:
select rating
Wanna post a correction for this tab? Suggest correction