Oops, an error
Loading. Please wait.
We have an official My Least Favorite Life tab made by UG professional guitarists. Check out the tab »
×
69,935 views 333 this week
9 commentsread comments
1 2 3 4 5
x 72
add to favorites
×
Save as Personal and add changes to this tab that will be seen only by you. Learn more ›
×
You can save this tab as Personal to edit and correct it or add notes. All changes will be seen only by you. Learn more »
launch autoscroll
font size
0
reset
transpose
0
reset
simplify chords
display chords
guitar tuner
edit
Autoscroll
slow
fast
+/-
esc
set tempo
stop
Author
Strumming
There is no strumming pattern for this song yet. and get +5 IQ
-------------------------------------------------------------------------------
                             My Least Favorite Life - Lera Lynn
-------------------------------------------------------------------------------
Tabbed by:Todd
E-mail:

This is how I play it.. Enjoy!!


[Intro ]      
                   Dm                      Dm                                     A7
e|-----------------5-----------------------5--------------------------------------5----|
B|-----------------6-----------------------6--------------------------------------5----|
G|-----------------7-----------------------7--------------------------------------6----|
D|-----------------7-----------------------7------------8-7---5-------------------5----|
A|---5-7-8-7--4-5--5---------5-7-8-7--4-5--5-------5--------5----------5-8-7------7----|
E|-5-----------------------5------------------------------------------------------5----|


[Verse]

A          A7             Dm
this is my least favorite life
A                 A7        Dm
the one where you fly and i don't
  A            A7         Dm
a kiss holds a million deceits
                    Gm
and a lifetime goes up
    A7
in smoke


A           A7            Dm
this is my least favorite you
    A           A7             Dm
who floats far above earth and stone
    A             A7           Dm
the nights that i twist on the rack
                   Gm
is the time that i feel
        A7
most at home


[Chorus]

   Bb               Dm
we wandering in the shade
        Bb               Dm
and the rustle of fallen leaves
  A           A7        Dm
a bird on the edge of a blade
          Bb
lost now forever
    C         A        Dm
my love in a sweet memory


                   Dm                              
e|-----------------5--------------------------|
B|-----------------6--------------------------|
G|-----------------7--------------------------|
D|-----------------7--------------------------|
A|---5-7-8-7--4-5--5---------5-7-8-7--4-5-----|
E|-5-----------------------5------------------|


[Verse]

      A           A7            Dm
the station rolls away from the train
    A           A7           Dm
the blue pulls away from the sky
    A          A7         Dm
the whisper of two broken wings
              Gm
maybe they're yours
              A7
maybe they're mine


A          A7             Dm
this is my least favorite life
A          A7             Dm
the one where i'm out of my mind
A                    A7          Dm
the one where you're just out of reach
                 Gm
the one where i stay
        A7
and you fly


[Chorus]

    Bb               Dm
we wandering in the shade
        Bb               Dm
and the rustle of fallen leaves
  A           A7        Dm
a bird on the edge of a blade
          Bb
lost now forever
    C          A       Dm
my love in a sweet memory

                   Dm                              
e|-----------------5--------------------------|
B|-----------------6--------------------------|
G|-----------------7--------------------------|
D|-----------------7--------------------------|
A|---5-7-8-7--4-5--5---------5-7-8-7--4-5~----|
E|-5-----------------------5------------------|



************************************

| ~  Vibrato

************************************

            
            
Suggest correction
Creating personal tab
Creating personal tab
You can edit any tab online and save it as your Personal.

You can edit, replace or remove any tab part or add personal notes – all changes will be seen only by you.

Personal tabs can be accessed anytime from any device, even offline.
Learn more »
comments
print report bad tab
9 comments total. Showing first comments.
+2 reply
crazyryoga 10 Jun 26, 2015 09:19 AM

perfect ;)

+4 reply
pep.ruggeri 10 Jul 13, 2015 12:34 AM

the intro for me sounds better 5-8-7-4-5. is my ear wrong?

+2 reply
savantx 10 Sep 03, 2015 12:40 PM

I agree with the pep.ruggeri on first part of the intro, second part sounds a little different to me also. I think it goes,

e|-----------------------------------------------------------------------X----|
B|-----------------------------------------------------------------------5----|
G|-----------------------------------------------------------------------6----|
D|-------------------------------------------------7-5-3-5---------------5----|
A|---5-8-7-4-5-8----------5-8-7-4-5-8---------5-7-------------5-8-7------7----|
E|-5------------5-------5-------------5----------------------------------5----|


riffs after chorus

e|----------------------------------|
B|----------------------------------|
G|----------------------------------|
D|----------------------------------|
A|---5-8-7-4-5-8----------5-8-7-4-5-|
E|-5-------------5------5-----------|

guest
You may want to rate the tab now too:
select rating
Wanna post a correction for this tab? Suggest correction