Oops, an error
Loading. Please wait.

Vois Sur Ton Chemin Tab

version 1
version 1

Whole song

Interactive

25,044 views 27 this week
no commentswrite comment
1 2 3 4 5
accurate
x 6
add to favorites
launch autoscroll
font size
0
reset
how to read this tab
guitar tuner
Tab Pro tools
  • play this tab
  • loop segment
  • change instrument
  • show fretboard
  • metronome
×
Best way to learn
"Vois Sur Ton Chemin"
Autoscroll
slow
fast
+/-
esc
set tempo
stop
Contributor
http://www.cinemotions.com/modules/Films/fiche/10850/Les-Choristes.html

hey everyone. it's my first tab. I think it's that, so enjoy!!!! :)

"vois sur ton chemin..."
E|-4--4--4--0--2--2--2--2-----0--0--2--4--0--0--0--------2--0-----4--0----------------|
B|-------------------------4-----------------------2--4--------4--------4--2--4--1--2-|
G|------------------------------------------------------------------------------------|
D|------------------------------------------------------------------------------------|
A|------------------------------------------------------------------------------------|
E|------------------------------------------------------------------------------------|


"Sens au coeur de la nuit..."
E|------2--0---0--2--0---------2--0---4---------------|
B|-2--2------4---------4--2--2------4---2--4--2--1--2-|
G|----------------------------------------------------|
D|----------------------------------------------------|
A|----------------------------------------------------|
E|----------------------------------------------------|
comments
print report bad tab
I want to post or [tab]
guest
You may want to rate the tab now too:
select rating
Please do not post tabs as comments. Select "correction" instead!