Oops, an error
Loading. Please wait.

Booneville Stomp bass

2,679 views 12 this week
1 commentread comment
1 2 3 4 5
x 4
add to favorites
×
Save as Personal and add changes to this tab that will be seen only by you. Learn more ›
×
You can save this tab as Personal to edit and correct it or add notes. All changes will be seen only by you. Learn more »
launch autoscroll
font size
0
reset
guitar tuner
edit
Autoscroll
slow
fast
+/-
esc
set tempo
stop
Author
Difficulty
This is my version of "Boonevile Stomp" if you feel it is incorrect please just do your own tab

TUNING: D (DGCF)

Main Riff:

|-------------------|
|------0----0-------|
|-------------------| x3
|-0h10--x10---------|

|------------------|
|------0-----------|
|------------------|
|-0h10---9---------|

This part is played on the end of the 2nd repetition of the main riff.

|-----------------------|
|-----0-----0------0----|
|-0h8-------------------|
|-------0h9---0h10------|

And this is le chorus bit

|-------------------------------------------------------------------------|
|------0-------0------0--------0-------0--------0--------0--------0-------|
|-0h15---0h12---0h14----0h10----0h15----0h12----0h14-----0h14-------------|
|-------------------------------------------------------------------------|

|-------------------------------------------------------------------------------|
|------0-------0------0--------0------------0----0------------0-----------------|
|-0h15---0h12---0h14----0h10----10h12p10----8----10h12p10---8-------------------|
|-------------------------------------------------------------------9-10--------|

            
            
Suggest correction
Creating personal tab
Creating personal tab
You can edit any tab online and save it as your Personal.

You can edit, replace or remove any tab part or add personal notes – all changes will be seen only by you.

Personal tabs can be accessed anytime from any device, even offline.
Learn more »
comments
print report bad tab
1 comment total.
0 reply
perri_jp 495 Feb 01, 2014 05:59 AM

It might not be 100% accurate, but it's a really awesome reference for sounding it out.

Thanks man

guest
You may want to rate the tab now too:
select rating
Wanna post a correction for this tab? Suggest correction