Oops, an error
Loading. Please wait.

One Better bass

version 2
version 2

Whole song

Interactive

3,566 views 1 this week
3 commentsread comments
1 2 3 4 5
x 4
add to favorites
×
Save as Personal and add changes to this tab that will be seen only by you. Learn more ›
×
You can save this tab as Personal to edit and correct it or add notes. All changes will be seen only by you. Learn more »
launch autoscroll
font size
0
reset
guitar tuner
edit
Autoscroll
slow
fast
+/-
esc
set tempo
stop
Author
Difficulty
                                  
One Better                                    
                                                                  
Les Claypool
Of Whales and Woes
Track 2

Sorry Theres no chorus i'll update it when i get more time

Verse                                                             
      S E.   S S S S S S  S  S  S E.      S E.   S S S S S S  S  S S  S  E   
G||-----------------------------------|------------------------------12-----|
D||---------14---x-x-x-x-12-14-12-----|---------14---x-x-x-x-12-14-x----14--|
A||-----------------------------------|-------------------------------------|
E||--12-------------------------------|--12---------------------------------|

                                        |--3--|                          
   S E.   S S S S S S  S  S Q       E   S  S  S  E   E  S   S  E   Q     
---------------------------------|--------------------------------------|
---------14---x-x-x-x-12-14------|--x--12-14-12---------2s-14--L\-------|
---------------------------------|--------------14----------------------|
--12-----------------------------|------------------12------------------|


  E  E  E  S S E  Q    S S    S S E  E  E  E  E  E  E   
-------------9-------------|---------------------------|
--------8------7-----------|--x-5-5--7--7--------------|
--7--------x-----------7-7-|---------------7-----7-----|
---------------------------|---------------------------|


   E   Q    S E.  S S S S E     E  E  E  E  E  S S E  E   
--12\-------0-----7-6-7-6----|-------------------x-------|
--14\---------------------7--|--5--5--4--4---------------|
-----------------------------|--------------7--x---7-----|
-----------------------------|---------------------------|


  E  E  E  S S E  Q    S S    S S E  E  E  E  E  E  E   
-------------9-------------|---------------------------|
--------8------7-----------|--x-5-5--7--7--------------|
--7--------x-----------7-7-|---------------7-----7-----|
---------------------------|---------------------------|


   E   Q    S E.  S S S S E     E  E  E  E  E  S S E  E   
--12\-------0-----7-6-7-6----|-------------------x-------|
--14\---------------------7--|--5--5--4--4---------------|
-----------------------------|--------------7--x---7-----|
-----------------------------|---------------------------|


  E  E  E  S S E  Q    S S    S S E  E  E  E  E  E  E   
-------------9-------------|---------------------------|
--------8------7-----------|--x-5-5--7--7--------------|
--7--------x-----------7-7-|---------------7-----7-----|
---------------------------|---------------------------|


   E   Q    S E.  S S S S E     E  E  E  E  E  S S E  E   
--12\-------0-----7-6-7-6----|-------------------x-------|
--14\---------------------7--|--5--5--4--4---------------|
-----------------------------|--------------7--x---7-----|
-----------------------------|---------------------------|


  E  E  E  S S E  Q    S S    S S E  E  E  E  E  E  E   
-------------9-------------|---------------------------|
--------8------7-----------|--x-5-5--7--7--------------|
--7--------x-----------7-7-|---------------7-----7-----|
---------------------------|---------------------------|


   E   Q    S E.  S S S S E     E  E  E  E  E  S S E  E   
--12\-------0-----7-6-7-6----|-------------------x-------|
--14\---------------------7--|--5--5--4--4---------------|
-----------------------------|--------------7--x---7-----|
-----------------------------|---------------------------|


  E  E  E  S S E  Q    S S    S S E  E  E  E  E  E  E   
-------------9-------------|---------------------------|
--------8------7-----------|--x-5-5--7--7--------------|
--7--------x-----------7-7-|---------------7-----7-----|
---------------------------|---------------------------|


   E   Q    S E.  S S S S E     E  E  E  E  E  S S E  E   
--12\-------0-----7-6-7-6----|-------------------x-------|
--14\---------------------7--|--5--5--4--4---------------|
-----------------------------|--------------7--x---7-----|
-----------------------------|---------------------------|


  E  E  E  S S E  Q    S S    S S E  E  E  E  E  E  E   
-------------9-------------|---------------------------|
--------8------7-----------|--x-5-5--7--7--------------|
--7--------x-----------7-7-|---------------7-----7-----|
---------------------------|---------------------------|


   E   Q    S E.  S S S S E     E  E  E  E  E  S S E  E          
--12\-------0-----7-6-7-6----|-------------------x-------|-----||
--14\---------------------7--|--5--5--4--4---------------|-----||
-----------------------------|--------------7--x---7-----|-----||
-----------------------------|---------------------------|-----||




Duration Legend
---------------
W - whole
H - half
Q - quarter
E - 8th
S - 16th
T - 32nd
X - 64th
. - note dotted
|-n-|  - n-tuplets


Tablature Legend
----------------
L - tied note
x - dead note
g - grace note
(n) - ghost note
> - accentuded note
NH - natural harmonic
AH - artificial harmonic
TH - tapped harmonic
SH - semi harmonic
PH - pitch harmonic
h - hammer on
p - pull off
b - bend
br - bendRelease
pb - preBend
pbr - preBendRelease
brb - bendReleaseBend
\n/ - tremolo bar dip
\n - tremolo bar dive
-/n - tremolo bar Release up
/n\ - tremolo bar inverted dip
/n - tremolo bar return
-\n - tremolo bar Release down
S - shift slide
s - legato slide
/ -  slide into from below or out of upwards
\ -  slide into from above or out of downwards
~ - vibrato
W - wide vibrato
tr - trill
TP - tremolo picking
T - tapping
S - slap
P - pop
< - fade in
^ - brush up
v - brush down

            
            
Suggest correction
Creating personal tab
Creating personal tab
You can edit any tab online and save it as your Personal.

You can edit, replace or remove any tab part or add personal notes – all changes will be seen only by you.

Personal tabs can be accessed anytime from any device, even offline.
Learn more »
comments
print report bad tab
3 comments total.
0 reply
IWeildTheSpade 124 Jul 04, 2007 03:34 AM

You make these tabs so much harder than the song really is. So many people do that. There are much easy fingerings for that, less dead notes, and he plays an E major in the main riff not an E minor as he incorporates a fair bit E mixolydian into the song (shown by use of major notes and the chorus).

You play this:
G---------------------------------------------------14---0--
D-------14------------------------------------------13------
A----13-----12----10-10-10-10-12-12-------------------------
E-12---------------------------------10-10-10--11-----------

G-------------------------------- I--------0-
D--11-12-11-12-11---------------- I----------
A------------------10--10--12--12 I----------
E-------------------------------- I-5-6-x----
{Choice of fill here, this one's just
{easiest to do while singing.

0 reply
IWeildTheSpade 124 Jul 04, 2007 03:37 AM

More complicated than it should be

0 reply
maxyboy93 10 Mar 21, 2008 11:15 AM

other tab is better..

guest
You may want to rate the tab now too:
select rating
Wanna post a correction for this tab? Suggest correction