Oops, an error
Loading. Please wait.

Hendershot Bass Tab

2,017 views 3 this week
no commentswrite comment
1 2 3 4 5
please rate
add to favorites
launch autoscroll
font size
0
reset
guitar tuner
Tab Pro tools
  • play this tab
  • loop segment
  • change instrument
  • show fretboard
  • metronome
×
Best way to learn
"Hendershot"
Autoscroll
slow
fast
+/-
esc
set tempo
stop
Contributor
-------------------------------------------------------------------------------
			     HENDERSHOT - Les Claypool And The Holy Mackerel
-------------------------------------------------------------------------------

Tabbed By : Lawrence Hill
e-mail: ozloz@hotmail.co.uk

Tuning: EADG

Les plays this on one of his upright basses. Im not sure how correct this tab is 
to the studio version because the only version of it i listen to is the live version on the "5 
of Diesel" DVD. Enjoy playing.


Intro:

G|---------------------------------------------------------------------------|
D|---------------------------------------------------------------------------|
A|-----------3h4------------3h4-----------3h4--------------------------------|
E|--1--x--x--------1--x--x-------1--x--x-------1--x--x--13\1-----------------|

Main Bassline:

       This is played a few times              He throws this in occasionally
G|--------------------------------------------|------------------------------|
D|--------------------------------------------|------------------------------|
A|-----------3h4-----------3h4-----------3h4--|-----------3h4--3h4-----------|
E|--1--x--x-------1--x--x-------1--x--x-------|--1--x--x---------------------|

Variation:

G|--------------------------------------------|------------------------------|
D|-----------3h4-----------3h4-----------3h4--|-----------3h4--3h4-----------|
A|--1--x--x-------1--x--x-------1--x--x-------|--1--x--x---------------------|
E|--------------------------------------------|------------------------------|


Have fun...

| /  slide up
| \  slide down
| h  hammer-on
| p  pull-off
| ~  vibrato
| +  harmonic
| x  Mute note
===============================================================================
comments
We did not receive enough feedback on this tab! Please rate:
print report bad tab
1 2 3 4 5
I want to post or [tab]
guest
You may want to rate the tab now too:
select rating
Please do not post tabs as comments. Select "correction" instead!