Oops, an error
Loading. Please wait.

Seinfeld Theme Bass Tab

254,252 views 1,791 this week
16 commentsread comments
1 2 3 4 5
x 63
add to favorites
launch autoscroll
font size
0
reset
guitar tuner
Autoscroll
slow
fast
+/-
esc
set tempo
stop
Help us to improve Ultimate-Guitar.com Take our survey!
×
Author
Artist: Les Claypool
Song: Seinfeld Theme
Tabber: Tyler B


[Intro x1]

G|0h7-0h4----------------------------|
D|--------7-5------------------------|
A|------------0h5-0h2----------------|
E|--------------------5-3------------|
  p   p   p p s   s   s s


[Verse 1]

G|---------------------------------------|
D|----------------------2------------7~--|
A|------25-------------------------------|
E|0--0h4----455--3-2-1-0-0-2-2-3-4-5-----|
  s  s  ss  sss  s s s sps s s s s s  p

G|---------------------------------------|
D|----------------------2------------7~--|
A|------25-------------------------------|
E|0--0h4----455--3-2-1-0-0-2-2-3-4-5-----|
  s  s  ss  sss  s s s sps s s s s s  p

G|----------------------------------------|
D|------1-------------3--------3~---------|
A|----03--0-1-1-0------------01-----------|
E|1--1-----------4-3-1-1-334--------------|
  s  sssp s s s ss s sps sssss p


[Intro x1]

G|0h7-0h4----------------------------|
D|--------7-5------------------------|
A|------------0h5-0h2----------------|
E|--------------------5-3------------|
  p   p   p p s   s   s s


[Verse 2]

G|------------------------------------------------|
D|-------2---------------4-------------b4~---------|
A|----1-4----1-2-2-5-------------b1-b2------------|
E|2-2---------------4-3-2-2-445-------------------|
  s s s sp   s s s ss s sps sss  s  s   p

G|--------|
D|-2------|
A|---4-2--|
E|--------|
   p s s

G|-----------------------------------------------|
D|----------------------2------------b3~---------|
A|------25---------------------------------------|
E|0--0h4----455--3-2-1-0-0-2-2-3-4-5--------3345-|
  s  s  ss  sss  s s s sps s s s s s   p    ssss



Thats it, I think its pretty much all correct however, if u find any mistakes or have 
questions feel free to post them.


************************************

| h  Hammer-on
| b  Bend
| ~  Let ring
| s  Slap
| p  Pop

************************************
Suggest correction
comments
print report bad tab
16 comments total. Showing first comments.
+6 reply
i(ncubus)play 122 Nov 27, 2006 06:44 PM

awesome ive always wanted to play this song; good tab

+3 reply
Hoppy007 10 Jul 18, 2007 05:52 PM

very nice

+1 reply
501blackhawk 31 Dec 19, 2007 06:46 PM

lol

guest
You may want to rate the tab now too:
select rating
Wanna post a correction for this tab? Suggest correction