Oops, an error
Loading. Please wait.

Wynonas Big Brown Beaver Bass Tab

55 views 3 this week
no commentswrite comment
1 2 3 4 5
2 more votes to show rating
add to favorites
launch autoscroll
font size
0
reset
guitar tuner
Autoscroll
slow
fast
+/-
esc
set tempo
stop
Help us to improve Ultimate-Guitar.com Take our survey!
×
Author
Difficulty
intermediate
About this tab version
When Les plays it live, he changes up the fills a bit, and he changes up what he plays during the solo a bit, but the verse riff and the main riff remain the same. Was this info helpful? Yes No
Slap and pop

[Intro/verses]
G|--------------|--------------|---------------|------------------|
D|------0-------|------0-------|------0--------|------0-------0---|
A|--------------|--------------|---------------|------------------|
E|-0h10---X--XX-|-0h10---X--XX-|-0h10----X--XX-|-0h10---X-0h8---X-|

He throws in a strummed 11 11 during the second verse.
                        0  0
                        -  -
                        -  -

[main riff/riff between verses]

It doesn't really matter what strings you play the muted notes on. Just as long as they're quick. Les does 
a muted hammer-on thing. He changes up the fills, but the ones below give you the general idea.

G|--------------10-|-----------------|---------------14-|---------------12-|
D|------0-XhXhX----|------0-XhXhX-10-|-------0-XhXhX----|------0--XhXhX----|
A|-----------------|-----------------|------------------|------------------|
E|-0h10------------|-0h10------------|-0h10-------------|-0h10-------------|
                                        
G|--------------10-|-------------------|--------------14-|-10-------------|
D|------0-XhXhX----|-------0-XhXhX--10-|------0-XhXhX----|----10h12-10h12-|
A|-----------------|-------------------|-----------------|----------------|
E|-0h10------------|-0h10--------------|-0h10------------|----------------|
                                                      Fill----------------I

G|--------------10-|-----------------|--------------14-|---------------12-|
D|------0-XhXhX----|------0-XhXhX-10-|------0-XhXhX----|------0--XhXhX----|
A|-----------------|-----------------|-----------------|------------------|
E|-0h10------------|-0h10------------|-0h10------------|-0h10-------------|

G|--------------10-|-----------------|--10-------------|-10h12------------10h12-|
D|------0-XhXhX----|------0-XhXhX-10-|-----10h12-10h12-|-------10h12-10h12------|
A|-----------------|-----------------|-----------------|------------------------|
E|-0h10------------|-0h10------------|-----------------|------------------------|
                                  Fill------------------------------------------I

As for the solo part, not sure what he does on the record, but live I see him doing this lick a lot:

[Solo]
G|-------------------------|
D|----0-----0------0-------|
A|------X-8----------------|
E|-10---------X-10---X-8-9-|

and this slide thing
G|--------------|-----------------|
D|-----0------0-|-------0------0--|
A|--------------|-----------------|
E|-10\---X-1/---|-X-10\---X-1/----|

***********************************

h - hammer-on
X - muted note
\ - slide down
/ - slide up

***********************************
Suggest correction
Give kudos to tab author, rate the tab!
1 2 3 4 5
comments
print report bad tab
guest
You may want to rate the tab now too:
select rating
Wanna post a correction for this tab? Suggest correction