Oops, an error
Loading. Please wait.

Ces Temps-Ci Tab

456 views 6 this week
no commentswrite comment
1 2 3 4 5
please rate
add to favorites
launch autoscroll
font size
0
reset
how to read this tab
guitar tuner
Tab Pro tools
  • play this tab
  • loop segment
  • change instrument
  • show fretboard
  • metronome
×
Best way to learn
"Ces Temps-ci"
Autoscroll
slow
fast
+/-
esc
set tempo
stop
Contributor
Difficulty
novice
##########################################
Chanson : Ces temps-ci
Artiste : Cowboys Fringants, Les
Transcription par :
Fichier Provenant de : Partitions101!
###########################################
11. CES TEMPS-CI

Intro

Premiere Guitar

Am           C/B (022010)      C
---0-------------0-----------------0---------------------------------|
-----1---1----------1---1-------------1---1--------------------------|
-------2--------------0-----------------0--------0-------------------|
--2------------2-----------------2---------------2-------------0-----|
0------------2-----------------3---------------3----------0h2--------|
---------------------------------------------------------------------|

Am           C/B               C
---0-------------0-----------------0---------------------------------|
-----1---1----------1---1-------------1---1--------------------------|
-------2--------------0-----------------0--------0-------------------|
--2------------2-----------------2---------------2-------------0-----|
0------------2-----------------3---------------3----------0h2--------|
---------------------------------------------------------------------|

2ieme guitar

embarque la 2ieme fois
                               C
---------------------------------------------------------------------|
-------5-----6-8---6-5-5----5--3-----3--5--3-----5-6-5-3-------------|
--5h7-----------------------------5-----------5----------5-4-----2---|
---------------------------------------------------------------------|
---------------------------------------------------------------------|
---------------------------------------------------------------------|

Am                 Em
Icitte à soir, y mouille à siot
F              C
On a donné un pas pire show
F                  C
Le motel est pas vraiment swell
G                            C
Une chance t'es là pis qu'j'te trouve belle...

Am                        Em
J'te r'garde dormir comme un bébé
F                      C
C'est plate j'avais envie d'jaser
F                    C
C'pas grave chu habitué Chérie
G                      C
De m'parler tout seul ces temps-ci...

Interlude 1

Am-C/B-C
-------------------------------------|
-------5-----6-8---6-5-5----5--3-----|
--5h7-----------------------------5--|
-------------------------------------|
-------------------------------------|
-------------------------------------|
Am                              Em
Depuis quec'qu' s'maines j'dors pu' d'mes nuits
F                    C
J'ai la tête remplie de bibittes
F                         C
C'est vrai que j'mène une drôle de vie
G                          C
Des fois j'me dis qu'c'est d'la bullchit


Am                    Em
J'aimerais ça pouvoir me r'trouver
F                       C
Parce qu'chu mêlé comme ça s'peut pas
F                    C
Le monde entier pourrait crever
G                          C
Chu juste ben quand t'es dans mes bras...


Am                       Em
Je sais qu'y s'passera jamais rien
         F                C
Qu'entre toi pis moi ça pas d'allure
         F                 C
Quand j'vas r'partir au p'tit matin
   Sol           Sol7
On va se dire à la r'voyure...
      Am                  Em
Même si j't'aimais ben p'tit trésor
    F                     C
Et que mon coeur s'tait accroché
         F           C
Quecqu'part sur ta route du nord
        G              C
Entre Baie-Comeau pis Port-Cartier


Interlude 2

-------------------------------------|
-------5-----6-8---6-5-5----5--3-----|
--5h7-----------------------------5--|
-------------------------------------|
-------------------------------------|
-------------------------------------|


Am                  Em
T'es heureuse ici qu'tu m'disais
F                      C
Loin des gens stressés de Montréal
F                        C
Pis y'a ton chum qui est dans l'portrait
G                        C
C'est moi l'perdant si j'fais le total

Am                   Em
Mais fais-toi en pas trop pour moi
F                        C
J'en ai vu d'autres, chu un grand garçon
F                              C
C'fait longtemps qu'je me fais pu d'fausses joies
G                       C
J'sais qu'ça r'vire en vraies déceptions


Am                    Em
Le soleil vient juste de se l'ver
F                 C
Dehors on entend les moineaux
F                          C
Qui gazouillent comme pour me rappeler
G                     G7
Qu'tantôt je r'pars pour Gatineau
Am                    Em
Je r'viens pas dans l'boute avant mai
F                    C
D'ici là donne-moi d'tes nouvelles
F                C
Tu m'appeleras à frais virés
G                    C
Pour me souhaiter joyeux Noël...


Interlude 3

Am-C/B-C
2e guit
---------------------------------------------------------------------|
-------5-----6-8---6-5-5----5--3-----3--5--3-----5-6-5-3-------------|
--5h7-----------------------------5-----------5----------5-4-----2---|
---------------------------------------------------------------------|
---------------------------------------------------------------------|
---------------------------------------------------------------------|


Am                     Em
Sais-tu au moins qu'tu m'as fait croire
F                         C
Qu'il est encore possible d'être heureux?
F                      C
Pis ça c'est c'qu'on appelle d'l'espoir
G                          C
C'toujours ça d'pris quand t'as pas mieux


Am                   Em
T'étais sûrement pas rien qu'un kik
F                      C
Mais là c'pas mal trop compliqué
F                  C
Si dans vie y faut prendre des risques
G                 C
Faut savoir aussi s'en aller


Am                     Em
Ça fait que j'vas m'fermer la gueule
F                   C
Et continuer mon ch'min tout seul
F                         C
A'ec mon p'tit coeur dans les shoe-claques
G                    G7
Pis ton sourire dans mon pack-sack
Am                   Em
Mais tsé tu peux m'appeler pareil
F                      C
T'es comme mon p'tit rayon d'soleil
F                    C
Dans ce monde complètement fucké
G                          C
Où j'aurais p't'être eu besoin d'toé
F                    C
Dans ce monde complètement fucké
G                          C
Où j'aurais p't'être eu besoin d'toé



Partition faite par Dave "DiEseLBoY" Gingras, Danick "DaN25" Larouche et Simon 
"PunkSkater" Roberge
comments
We did not receive enough feedback on this tab! Please rate:
print report bad tab
1 2 3 4 5
I want to post or [tab]
guest
You may want to rate the tab now too:
select rating
Please do not post tabs as comments. Select "correction" instead!