Oops, an error
Loading. Please wait.

On Tient Le Coup chords

145 views 1 this week
no commentswrite comment
1 2 3 4 5
2 more votes to show rating
add to favorites
×
Save as Personal and add changes to this tab that will be seen only by you. Learn more ›
×
You can save this tab as Personal to edit and correct it or add notes. All changes will be seen only by you. Learn more »
launch autoscroll
font size
0
reset
transpose
0
reset
display chords
guitar tuner
edit
Autoscroll
slow
fast
+/-
esc
set tempo
stop
Author
Strumming
There is no strumming pattern for this song yet. and get +5 IQ
[Intro]
 
(Riff 1)
                                        D               A
e|--14--17--15--14--12----17--15--14----14--17--15--14--12----17--15--14--|
B|------------------------------------------------------------------------|
G|------------------------------------------------------------------------|
D|------------------------------------------------------------------------|
A|------------------------------------------------------------------------|
E|------------------------------------------------------------------------|

(Riff 2)
    D   Em              A           D       D       Em          A  D
e|--17--19--17--15--14--12--17--15--14--12--10--12--14--12--10--9--10-----|
B|------------------------------------------------------------------------|
G|------------------------------------------------------------------------|
D|------------------------------------------------------------------------|
A|------------------------------------------------------------------------|
E|------------------------------------------------------------------------|


[Verse 1]

D
Ça fait déjà un bail, 
    Em
Que l'ami Cupidon, 
A                     D
Est venu viser Bull's eye, 
D
À un cœur de bière, 
Em
De ce pauvre con, 
A                      D
qui se noyait dans son verre.


[Pre-Chorus]

F#
Je sombrais au bar, 
Bm
comme un homme à la mer,
      A                     D
Quand t'es apparue comme un phare, 
Em
Depuis ce moment,
A
T'es le pied à terre, 
G                        D
À l'abri de mes tourments.


[Chorus]

G                 A      Bm
Entre les écueils et les joies, 
G                  A        D
On s'lache pas pis on tient l'coup.
G             A      Bm
Si l'amour zigzag un peu des fois, 
G                A           D
Y'est jamais bin loin d'chez nous.


[Bridge]

(Riff 2)
    D   Em              A           D       D       Em          A  D
e|--17--19--17--15--14--12--17--15--14--12--10--12--14--12--10--9--10-----|
B|------------------------------------------------------------------------|
G|------------------------------------------------------------------------|
D|------------------------------------------------------------------------|
A|------------------------------------------------------------------------|
E|------------------------------------------------------------------------|


F# Bm A A


[Verse 2]

D
Faire un boute à deux, 
      Em
C'est toujours hasardeux,
A                            D
C'est jamais une belle ligne drette.
D
Les fleurs du tapis, 
Em
Nous font des jambettes, 
A                       D
Pour nous compliquer la vie. 


[Pre-Chorus]

F#                           Bm
Sans compter les tuiles, les trous pis les flaques d'huile, 
A                           D
Qui nous attendent au détour.
Em
Mais avant que l'amour, 
      A
Meure et nous effiloche,
G                      D
On s'attache avec d'la broche


[Chorus]

G                 A      Bm
Entre les écueils et les joies, 
G                  A        D
On s'lache pas pis on tient l'coup.
G             A      Bm
Si l'amour zigzag un peu des fois, 
G                A           D
Y'est jamais bin loin d'chez nous.


[Bridge]

(Riff 1)
    D               A                   D               A
e|--14--17--15--14--12----17--15--14----14--17--15--14--12----17--15--14--|
B|------------------------------------------------------------------------|
G|------------------------------------------------------------------------|
D|------------------------------------------------------------------------|
A|------------------------------------------------------------------------|
E|------------------------------------------------------------------------|


F#                     Bm                
Toi ma vieille blonde, oh oui ma jolie
A                     D
Tu es ma veilleuse de vie.
Em
Le havre de paix,
   A
Le p'tit point sur la map,
G                      D
Sur lequel je garde le cap


[Verse 3]

D
C'est rien que une histoire,
Em
Comme il y en a d'autres,
A                           D
Mais ça reste quand même la notre.
D
Quand arrive le soir,
Em
On tire les couvertes,
A                    D
Au lieu de lancer la serviette.


[Pre-Chorus]

F#
Couchés en cuillère,
    Bm
Collé sur ton derrière,
A                      D
T'es mon petit bord de mer.
  Em                 A
À la fois la lumière et le gouvernail,
G                     D
Qui me ramènent au bercail.


[Chorus]

G                 A      Bm
Entre les écueils et les joies, 
G                  A        D
On s'lache pas pis on tient l'coup.
G             A      Bm
Si l'amour zigzag un peu des fois, 
G                A           D
Y'est jamais bin loin d'chez nous.


[Outro]

(Riff 2)
    D   Em              A           D       D       Em          A  D
e|--17--19--17--15--14--12--17--15--14--12--10--12--14--12--10--9--10-----|
B|------------------------------------------------------------------------|
G|------------------------------------------------------------------------|
D|------------------------------------------------------------------------|
A|------------------------------------------------------------------------|
E|------------------------------------------------------------------------|

(Riff 1)
    D   Em          A     D             D   Em          A              D
e|--14--17--15--14--12----17--15--14----14--17--15--14--12--10--9--10--10-|
B|------------------------------------------------------------------------|
G|------------------------------------------------------------------------|
D|------------------------------------------------------------------------|
A|------------------------------------------------------------------------|
E|------------------------------------------------------------------------|

            
            
Suggest correction
Creating personal tab
Creating personal tab
You can edit any tab online and save it as your Personal.

You can edit, replace or remove any tab part or add personal notes – all changes will be seen only by you.

Personal tabs can be accessed anytime from any device, even offline.
Learn more »
Give kudos to tab author, rate the tab!
1 2 3 4 5
comments
print report bad tab
guest
You may want to rate the tab now too:
select rating
Wanna post a correction for this tab? Suggest correction