Oops, an error
Loading. Please wait.

I Live In Picardie tab

19 views 1 this week
no commentswrite comment
1 2 3 4 5
3 more votes to show rating
add to favorites
×
Save as Personal and add changes to this tab that will be seen only by you. Learn more ›
×
You can save this tab as Personal to edit and correct it or add notes. All changes will be seen only by you. Learn more »
launch autoscroll
font size
0
reset
how to read this tab
guitar tuner
edit
Autoscroll
slow
fast
+/-
esc
set tempo
stop
Author
Difficulty
About this tab version
Les Fatals Picards I live in picardie. Was this info helpful? Yes No
[COUPLET 1]
- Hello!
- Hello!

   Am        E         Dm        Am 
e|-0-0-0-0-|-0-0-0-0-|-1-1-1-1-|-0-0-0-0-|
B|-1-1-1-1-|-0-0-0-0-|-3-3-3-3-|-1-1-1-1-|
G|-2-2-2-2-|-1-1-1-1-|-2-2-2-2-|-2-2-2-2-|
D|-2-2-2-2-|-2-2-2-2-|-0-0-0-0-|-2-2-2-2-|
A|-0-0-0-0-|-2-2-2-2-|-x-x-x-x-|-0-0-0-0-|
E|-x-x-x-x-|-0-0-0-0-|-x-x-x-x-|-x-x-x-x-|

- Where are you from?
- I am from Picardie!
- What?
- I am from Picardie!
- What?

   Am        E         Dm        Am 
e|-0-0-0-0-|-0-0-0-0-|-1-1-1-1-|-0-0-0-0-|
B|-1-1-1-1-|-0-0-0-0-|-3-3-3-3-|-1-1-1-1-|
G|-2-2-2-2-|-1-1-1-1-|-2-2-2-2-|-2-2-2-2-|
D|-2-2-2-2-|-2-2-2-2-|-0-0-0-0-|-2-2-2-2-|
A|-0-0-0-0-|-2-2-2-2-|-x-x-x-x-|-0-0-0-0-|
E|-x-x-x-x-|-0-0-0-0-|-x-x-x-x-|-x-x-x-x-|

- I am from Picardie!
- Oh, you mean just like "the man of the Picardie"?
- Yes, exactly, except I don't live on a peniche...

   Am        E         Dm        Am 
e|-0-0-0-0-|-0-0-0-0-|-1-1-1-1-|-0-0-0-0-|
B|-1-1-1-1-|-0-0-0-0-|-3-3-3-3-|-1-1-1-1-|
G|-2-2-2-2-|-1-1-1-1-|-2-2-2-2-|-2-2-2-2-|
D|-2-2-2-2-|-2-2-2-2-|-0-0-0-0-|-2-2-2-2-|
A|-0-0-0-0-|-2-2-2-2-|-x-x-x-x-|-0-0-0-0-|
E|-x-x-x-x-|-0-0-0-0-|-x-x-x-x-|-x-x-x-x-|

- So where do you live then?
- Bah, I Live In Picardie!
- Just like "the man of the Picardie"?
- Euh yes, enfin euh...

[REFRAIN]
   Dm        Am        G         E
e|-1-1-1-1-|-0-0-0-0-|-3-3-3-3-|-0-0-0-0-|
B|-3-3-3-3-|-1-1-1-1-|-3-3-3-3-|-0-0-0-0-|
G|-2-2-2-2-|-2-2-2-2-|-0-0-0-0-|-1-1-1-1-|
D|-0-0-0-0-|-2-2-2-2-|-0-0-0-0-|-2-2-2-2-|
A|-x-x-x-x-|-0-0-0-0-|-1-1-1-1-|-2-2-2-2-|
E|-x-x-x-x-|-x-x-x-x-|-2-2-2-2-|-0-0-0-0-|

I am from Picardie, the land of the rallye
I am from Picardie, the land of 2 be 3

   Dm        Am        G         E
e|-1-1-1-1-|-0-0-0-0-|-3-3-3-3-|-0-0-----|
B|-3-3-3-3-|-1-1-1-1-|-3-3-3-3-|-0-0-----|
G|-2-2-2-2-|-2-2-2-2-|-0-0-0-0-|-1-1-----|
D|-0-0-0-0-|-2-2-2-2-|-0-0-0-0-|-2-2-----|
A|-x-x-x-x-|-0-0-0-0-|-1-1-1-1-|-2-2-----|
E|-x-x-x-x-|-x-x-x-x-|-2-2-2-2-|-0-0-----|

I am from Picardie, you know Annie Cordy?
She's not from Picardie... just not like me...

[COUPLET 2]
   Am        E         Dm        Am
e|-0-0-0-0-|-0-0-0-0-|-1-1-1-1-|-0-0-0-0-|
B|-1-1-1-1-|-0-0-0-0-|-3-3-3-3-|-1-1-1-1-|
G|-2-2-2-2-|-1-1-1-1-|-2-2-2-2-|-2-2-2-2-|
D|-2-2-2-2-|-2-2-2-2-|-0-0-0-0-|-2-2-2-2-|
A|-0-0-0-0-|-2-2-2-2-|-x-x-x-x-|-0-0-0-0-|
E|-x-x-x-x-|-0-0-0-0-|-x-x-x-x-|-x-x-x-x-|

- So you live on a boat then?
- I don't live on a boat euh 
live in Méru in Picardie
And when I look at the stars and you know it's the night

   Am        E         Dm        Am
e|-0-------|-0-------|-1-------|-0-------|
B|-1-------|-0-------|-3-------|-1-------|
G|-2-------|-1-------|-2-------|-2-------|
D|-2-------|-2-------|-0-------|-2-------|
A|-0-------|-2-------|-x-------|-0-------|
E|-x-------|-0-------|-x-------|-x-------|

Think all about the misery in the world and I think it's so unfair, 
And I could have been a camionneur hein, if I only had the permit..

   Am        E         Dm        Am
e|-0-0-0-0-|-0-0-0-0-|-1-1-1-1-|-0-0-0-0-|
B|-1-1-1-1-|-0-0-0-0-|-3-3-3-3-|-1-1-1-1-|
G|-2-2-2-2-|-1-1-1-1-|-2-2-2-2-|-2-2-2-2-|
D|-2-2-2-2-|-2-2-2-2-|-0-0-0-0-|-2-2-2-2-|
A|-0-0-0-0-|-2-2-2-2-|-x-x-x-x-|-0-0-0-0-|
E|-x-x-x-x-|-0-0-0-0-|-x-x-x-x-|-x-x-x-x-|

and I think why? Hein, why me? Why Picardie? 
But I also think that you and me maybe, we can build a strong relationship based on mutual understanding
And be... happy...

[REFRAIN]
   Dm        Am        G         E
e|-1-1-1-1-|-0-0-0-0-|-3-3-3-3-|-0-0-0-0-|
B|-3-3-3-3-|-1-1-1-1-|-3-3-3-3-|-0-0-0-0-|
G|-2-2-2-2-|-2-2-2-2-|-0-0-0-0-|-1-1-1-1-|
D|-0-0-0-0-|-2-2-2-2-|-0-0-0-0-|-2-2-2-2-|
A|-x-x-x-x-|-0-0-0-0-|-1-1-1-1-|-2-2-2-2-|
E|-x-x-x-x-|-x-x-x-x-|-2-2-2-2-|-0-0-0-0-|

Happy in Picardie, if you stay with me
Please stay in Picardie, that's not so much pourri
Fatal Picardie, must I be so lonely?
Fucking Picardie, mort au rat pays

[COUPLET 3]
   Am        E         Dm        Am
e|-0-0-0-0-|-0-0-0-0-|-1-1-1-1-|-0-0-0-0-|
B|-1-1-1-1-|-0-0-0-0-|-3-3-3-3-|-1-1-1-1-|
G|-2-2-2-2-|-1-1-1-1-|-2-2-2-2-|-2-2-2-2-|
D|-2-2-2-2-|-2-2-2-2-|-0-0-0-0-|-2-2-2-2-|
A|-0-0-0-0-|-2-2-2-2-|-x-x-x-x-|-0-0-0-0-|
E|-x-x-x-x-|-0-0-0-0-|-x-x-x-x-|-x-x-x-x-|

- Euh I am gened but look, look Jean-Paul, I'm not so sure I can stay...
I've got to go back to where I belong to!
Oh, I must go back far from you!
To my country, to my place!
Cause I think I forgot to close the gaz!
Oh, Jean-Claude! I must go back to Saint-Etienne..!
- Oooh.. oh I know I shouldn't lie but.. my name is not Jean-Paul, it's William!
- William?
- Sorry!
- William?
- Sorry!

[REFRAIN]
   Dm        Am        G         E
e|-1-1-1-1-|-0-0-0-0-|-3-3-3-3-|-0-0-0-0-|
B|-3-3-3-3-|-1-1-1-1-|-3-3-3-3-|-0-0-0-0-|
G|-2-2-2-2-|-2-2-2-2-|-0-0-0-0-|-1-1-1-1-|
D|-0-0-0-0-|-2-2-2-2-|-0-0-0-0-|-2-2-2-2-|
A|-x-x-x-x-|-0-0-0-0-|-1-1-1-1-|-2-2-2-2-|
E|-x-x-x-x-|-x-x-x-x-|-2-2-2-2-|-0-0-0-0-|

Sorry in Picardie, if you stay with me
Please stay in Picardie, that's not so much pourri
Fatal Picardie, must I be so lonely?
Fucking Picardie, mort au rat pays

[OUTRO]

            
            
Suggest correction
Creating personal tab
Creating personal tab
You can edit any tab online and save it as your Personal.

You can edit, replace or remove any tab part or add personal notes – all changes will be seen only by you.

Personal tabs can be accessed anytime from any device, even offline.
Learn more »
Give kudos to tab author, rate the tab!
1 2 3 4 5
comments
print report bad tab
guest
You may want to rate the tab now too:
select rating
Wanna post a correction for this tab? Suggest correction